ISO-10303-21;
HEADER;
FILE_DESCRIPTION (( 'STEP AP203' ),
    '1' );
FILE_NAME ('20218-E0W.STEP',
    '2009-09-14T20:08:11',
    ( 'Admin' ),
    ( 'Thorlabs, Inc.' ),
    'SwSTEP 2.0',
    'SolidWorks 2007',
    '' );
FILE_SCHEMA (( 'CONFIG_CONTROL_DESIGN' ));
ENDSEC;

DATA;
#1 = CARTESIAN_POINT ( 'NONE',  ( 0.0000000000000000000, -2.143580871904552400E-016, 3.166949616211375100 ) ) ;
#2 = AXIS2_PLACEMENT_3D ( 'NONE', #1, #4, #7 ) ;
#3 = CIRCLE ( 'NONE', #2, 12.70000000000000100 ) ;
#4 = DIRECTION ( 'NONE',  ( 0.0000000000000000000, -1.836909530733566100E-016, 1.000000000000000000 ) ) ;
#5 = CIRCLE ( 'NONE', #9, 12.69999999999999800 ) ;
#6 = DIRECTION ( 'NONE',  ( 0.0000000000000000000, -1.000000000000000000, -2.405412661249775600E-016 ) ) ;
#7 = DIRECTION ( 'NONE',  ( 0.0000000000000000000, -1.000000000000000000, -1.707404996040164300E-016 ) ) ;
#8 = DIRECTION ( 'NONE',  ( 1.000000000000000000, 0.0000000000000000000, 0.0000000000000000000 ) ) ;
#9 = AXIS2_PLACEMENT_3D ( 'NONE', #10, #11, #12 ) ;
#10 = CARTESIAN_POINT ( 'NONE',  ( 0.0000000000000000000, 4.748114036908429900E-016, -0.5848382609307278800 ) ) ;
#11 = DIRECTION ( 'NONE',  ( 0.0000000000000000000, -1.836909530733566100E-016, 1.000000000000000000 ) ) ;
#12 = DIRECTION ( 'NONE',  ( 0.0000000000000000000, -1.000000000000000000, -1.878145495644181300E-016 ) ) ;
#13 = CARTESIAN_POINT ( 'NONE',  ( 0.0000000000000000000, 12.69999999999999900, 3.166949616211383500 ) ) ;
#14 = DIRECTION ( 'NONE',  ( 0.0000000000000000000, -1.836909530733566100E-016, 1.000000000000000000 ) ) ;
#15 = VECTOR ( 'NONE', #14, 1000.000000000000000 ) ;
#16 = CARTESIAN_POINT ( 'NONE',  ( 1.555250069354419100E-015, 12.69999999999999900, 2.000000000000002200 ) ) ;
#17 = LINE ( 'NONE', #16, #15 ) ;
#18 = AXIS2_PLACEMENT_3D ( 'NONE', #20, #8, #6 ) ;
#19 = SPHERICAL_SURFACE ( 'NONE', #18, 57.69400000000000300 ) ;
#20 = CARTESIAN_POINT ( 'NONE',  ( 0.0000000000000000000, 0.0000000000000000000, 55.69400000000000300 ) ) ;
#21 = FACE_OUTER_BOUND ( 'NONE', #55, .T. ) ;
#22 = CARTESIAN_POINT ( 'NONE',  ( 1.555250069354417700E-015, 12.69999999999999800, -0.5848382609307255500 ) ) ;
#23 = SPHERICAL_SURFACE ( 'NONE', #107, 69.69100000000000300 ) ;
#24 = FACE_OUTER_BOUND ( 'NONE', #31, .T. ) ;
#25 = CARTESIAN_POINT ( 'NONE',  ( -1.555250069354419300E-015, -12.69999999999998700, 3.166949616211380800 ) ) ;
#26 = EDGE_LOOP ( 'NONE', ( #69, #51, #27, #72 ) ) ;
#27 = ORIENTED_EDGE ( 'NONE', *, *, #71, .F. ) ;
#28 = VERTEX_POINT ( 'NONE', #25 ) ;
#29 = ORIENTED_EDGE ( 'NONE', *, *, #70, .F. ) ;
#30 = ADVANCED_FACE ( 'NONE', ( #24 ), #23, .F. ) ;
#31 = EDGE_LOOP ( 'NONE', ( #32, #35, #43 ) ) ;
#32 = ORIENTED_EDGE ( 'NONE', *, *, #33, .F. ) ;
#33 = EDGE_CURVE ( 'NONE', #34, #53, #103, .T. ) ;
#34 = VERTEX_POINT ( 'NONE', #98 ) ;
#35 = ORIENTED_EDGE ( 'NONE', *, *, #36, .T. ) ;
#36 = EDGE_CURVE ( 'NONE', #34, #28, #96, .T. ) ;
#37 = ORIENTED_EDGE ( 'NONE', *, *, #38, .F. ) ;
#38 = EDGE_CURVE ( 'NONE', #39, #68, #91, .T. ) ;
#39 = VERTEX_POINT ( 'NONE', #87 ) ;
#40 = ORIENTED_EDGE ( 'NONE', *, *, #41, .T. ) ;
#41 = EDGE_CURVE ( 'NONE', #39, #50, #85, .T. ) ;
#42 = CLOSED_SHELL ( 'NONE', ( #67, #74, #30, #44, #54, #60 ) ) ;
#43 = ORIENTED_EDGE ( 'NONE', *, *, #71, .T. ) ;
#44 = ADVANCED_FACE ( 'NONE', ( #86 ), #79, .F. ) ;
#45 = EDGE_LOOP ( 'NONE', ( #46, #47, #48 ) ) ;
#46 = ORIENTED_EDGE ( 'NONE', *, *, #36, .F. ) ;
#47 = ORIENTED_EDGE ( 'NONE', *, *, #33, .T. ) ;
#48 = ORIENTED_EDGE ( 'NONE', *, *, #49, .T. ) ;
#49 = EDGE_CURVE ( 'NONE', #53, #28, #3, .T. ) ;
#50 = VERTEX_POINT ( 'NONE', #22 ) ;
#51 = ORIENTED_EDGE ( 'NONE', *, *, #52, .T. ) ;
#52 = EDGE_CURVE ( 'NONE', #50, #53, #17, .T. ) ;
#53 = VERTEX_POINT ( 'NONE', #13 ) ;
#54 = ADVANCED_FACE ( 'NONE', ( #21 ), #19, .T. ) ;
#55 = EDGE_LOOP ( 'NONE', ( #56, #57, #58 ) ) ;
#56 = ORIENTED_EDGE ( 'NONE', *, *, #41, .F. ) ;
#57 = ORIENTED_EDGE ( 'NONE', *, *, #38, .T. ) ;
#58 = ORIENTED_EDGE ( 'NONE', *, *, #59, .F. ) ;
#59 = EDGE_CURVE ( 'NONE', #50, #68, #5, .T. ) ;
#60 = ADVANCED_FACE ( 'NONE', ( #149 ), #176, .T. ) ;
#61 = EDGE_LOOP ( 'NONE', ( #62, #63, #64, #65 ) ) ;
#62 = ORIENTED_EDGE ( 'NONE', *, *, #52, .F. ) ;
#63 = ORIENTED_EDGE ( 'NONE', *, *, #59, .T. ) ;
#64 = ORIENTED_EDGE ( 'NONE', *, *, #73, .T. ) ;
#65 = ORIENTED_EDGE ( 'NONE', *, *, #49, .F. ) ;
#66 = MANIFOLD_SOLID_BREP ( 'NONE', #42 ) ;
#67 = ADVANCED_FACE ( 'NONE', ( #154 ), #153, .T. ) ;
#68 = VERTEX_POINT ( 'NONE', #108 ) ;
#69 = ORIENTED_EDGE ( 'NONE', *, *, #70, .T. ) ;
#70 = EDGE_CURVE ( 'NONE', #68, #50, #172, .T. ) ;
#71 = EDGE_CURVE ( 'NONE', #28, #53, #167, .T. ) ;
#72 = ORIENTED_EDGE ( 'NONE', *, *, #73, .F. ) ;
#73 = EDGE_CURVE ( 'NONE', #68, #28, #145, .T. ) ;
#74 = ADVANCED_FACE ( 'NONE', ( #141 ), #140, .T. ) ;
#75 = EDGE_LOOP ( 'NONE', ( #37, #40, #29 ) ) ;
#76 = DIRECTION ( 'NONE',  ( 0.0000000000000000000, 1.000000000000000000, 1.991331421247285300E-016 ) ) ;
#77 = DIRECTION ( 'NONE',  ( -1.000000000000000000, 0.0000000000000000000, 0.0000000000000000000 ) ) ;
#78 = AXIS2_PLACEMENT_3D ( 'NONE', #80, #77, #76 ) ;
#79 = SPHERICAL_SURFACE ( 'NONE', #78, 69.69100000000000300 ) ;
#80 = CARTESIAN_POINT ( 'NONE',  ( 0.0000000000000000000, 0.0000000000000000000, 71.69099999999998800 ) ) ;
#81 = DIRECTION ( 'NONE',  ( 1.224606353822377300E-016, 1.000000000000000000, 0.0000000000000000000 ) ) ;
#82 = DIRECTION ( 'NONE',  ( 1.000000000000000000, -1.224606353822377300E-016, -2.249491082733206400E-032 ) ) ;
#83 = CARTESIAN_POINT ( 'NONE',  ( 0.0000000000000000000, 0.0000000000000000000, 55.69400000000000300 ) ) ;
#84 = AXIS2_PLACEMENT_3D ( 'NONE', #83, #82, #81 ) ;
#85 = CIRCLE ( 'NONE', #84, 57.69400000000000300 ) ;
#86 = FACE_OUTER_BOUND ( 'NONE', #45, .T. ) ;
#87 = CARTESIAN_POINT ( 'NONE',  ( 0.0000000000000000000, 7.065243897742824900E-015, -2.000000000000001800 ) ) ;
#88 = DIRECTION ( 'NONE',  ( 0.0000000000000000000, 0.0000000000000000000, 1.000000000000000000 ) ) ;
#89 = DIRECTION ( 'NONE',  ( -1.000000000000000000, 0.0000000000000000000, 0.0000000000000000000 ) ) ;
#90 = AXIS2_PLACEMENT_3D ( 'NONE', #97, #89, #88 ) ;
#91 = CIRCLE ( 'NONE', #90, 57.69400000000000300 ) ;
#92 = DIRECTION ( 'NONE',  ( -1.224606353822377300E-016, -1.000000000000000000, 0.0000000000000000000 ) ) ;
#93 = DIRECTION ( 'NONE',  ( -1.000000000000000000, 1.224606353822377300E-016, 2.249491082733206400E-032 ) ) ;
#94 = CARTESIAN_POINT ( 'NONE',  ( 0.0000000000000000000, 0.0000000000000000000, 71.69099999999998800 ) ) ;
#95 = AXIS2_PLACEMENT_3D ( 'NONE', #94, #93, #92 ) ;
#96 = CIRCLE ( 'NONE', #95, 69.69100000000000300 ) ;
#97 = CARTESIAN_POINT ( 'NONE',  ( 0.0000000000000000000, 0.0000000000000000000, 55.69400000000000300 ) ) ;
#98 = CARTESIAN_POINT ( 'NONE',  ( 0.0000000000000000000, 1.706880828084706000E-014, 1.999999999999988000 ) ) ;
#99 = DIRECTION ( 'NONE',  ( 0.0000000000000000000, 0.0000000000000000000, -1.000000000000000000 ) ) ;
#100 = DIRECTION ( 'NONE',  ( 1.000000000000000000, 0.0000000000000000000, 0.0000000000000000000 ) ) ;
#101 = CARTESIAN_POINT ( 'NONE',  ( 0.0000000000000000000, 0.0000000000000000000, 71.69099999999998800 ) ) ;
#102 = AXIS2_PLACEMENT_3D ( 'NONE', #101, #100, #99 ) ;
#103 = CIRCLE ( 'NONE', #102, 69.69100000000000300 ) ;
#104 = DIRECTION ( 'NONE',  ( 0.0000000000000000000, 1.000000000000000000, 1.991331421247285300E-016 ) ) ;
#105 = DIRECTION ( 'NONE',  ( -1.000000000000000000, 0.0000000000000000000, 0.0000000000000000000 ) ) ;
#106 = CARTESIAN_POINT ( 'NONE',  ( 0.0000000000000000000, 0.0000000000000000000, 71.69099999999998800 ) ) ;
#107 = AXIS2_PLACEMENT_3D ( 'NONE', #106, #105, #104 ) ;
#108 = CARTESIAN_POINT ( 'NONE',  ( 0.0000000000000000000, -12.69999999999998700, -0.5848382609307279900 ) ) ;
#109 = AXIS2_PLACEMENT_3D ( 'NONE', #175, #174, #173 ) ;
#110 = SECURITY_CLASSIFICATION ( '', '', #111 ) ;
#111 = SECURITY_CLASSIFICATION_LEVEL ( 'unclassified' ) ;
#112 = CC_DESIGN_PERSON_AND_ORGANIZATION_ASSIGNMENT ( #114, #113, ( #129 ) ) ;
#113 = PERSON_AND_ORGANIZATION_ROLE ( 'design_supplier' ) ;
#114 = PERSON_AND_ORGANIZATION ( #200, #199 ) ;
#115 = CC_DESIGN_PERSON_AND_ORGANIZATION_ASSIGNMENT ( #117, #116, ( #129 ) ) ;
#116 = PERSON_AND_ORGANIZATION_ROLE ( 'creator' ) ;
#117 = PERSON_AND_ORGANIZATION ( #200, #199 ) ;
#118 = CC_DESIGN_APPROVAL ( #126, ( #129 ) ) ;
#119 = APPROVAL_DATE_TIME ( #120, #126 ) ;
#120 = DATE_AND_TIME ( #121, #122 ) ;
#121 = CALENDAR_DATE ( 2009, 14, 9 ) ;
#122 = LOCAL_TIME ( 16, 8, 11.00000000000000000, #123 ) ;
#123 = COORDINATED_UNIVERSAL_TIME_OFFSET ( 5, 0, .BEHIND. ) ;
#124 = APPROVAL_PERSON_ORGANIZATION ( #128, #126, #125 ) ;
#125 = APPROVAL_ROLE ( '' ) ;
#126 = APPROVAL ( #127, 'UNSPECIFIED' ) ;
#127 = APPROVAL_STATUS ( 'not_yet_approved' ) ;
#128 = PERSON_AND_ORGANIZATION ( #200, #199 ) ;
#129 = PRODUCT_DEFINITION_FORMATION_WITH_SPECIFIED_SOURCE ( 'ANY', '', #201, .NOT_KNOWN. ) ;
#130 = CC_DESIGN_DATE_AND_TIME_ASSIGNMENT ( #132, #131, ( #192 ) ) ;
#131 = DATE_TIME_ROLE ( 'creation_date' ) ;
#132 = DATE_AND_TIME ( #133, #134 ) ;
#133 = CALENDAR_DATE ( 2009, 14, 9 ) ;
#134 = LOCAL_TIME ( 16, 8, 11.00000000000000000, #177 ) ;
#135 = DIRECTION ( 'NONE',  ( 0.0000000000000000000, -1.836909530733566100E-016, 1.000000000000000000 ) ) ;
#136 = DIRECTION ( 'NONE',  ( 0.0000000000000000000, -1.000000000000000000, -2.405412661249775600E-016 ) ) ;
#137 = DIRECTION ( 'NONE',  ( 1.000000000000000000, 0.0000000000000000000, 0.0000000000000000000 ) ) ;
#138 = CARTESIAN_POINT ( 'NONE',  ( 0.0000000000000000000, 0.0000000000000000000, 55.69400000000000300 ) ) ;
#139 = AXIS2_PLACEMENT_3D ( 'NONE', #138, #137, #136 ) ;
#140 = SPHERICAL_SURFACE ( 'NONE', #139, 57.69400000000000300 ) ;
#141 = FACE_OUTER_BOUND ( 'NONE', #75, .T. ) ;
#142 = DIRECTION ( 'NONE',  ( 0.0000000000000000000, -1.836909530733566100E-016, 1.000000000000000000 ) ) ;
#143 = VECTOR ( 'NONE', #142, 1000.000000000000000 ) ;
#144 = CARTESIAN_POINT ( 'NONE',  ( 0.0000000000000000000, -12.69999999999999900, 1.999999999999997800 ) ) ;
#145 = LINE ( 'NONE', #144, #143 ) ;
#146 = DIRECTION ( 'NONE',  ( 0.0000000000000000000, -1.000000000000000000, -1.707404996040164300E-016 ) ) ;
#147 = DIRECTION ( 'NONE',  ( 0.0000000000000000000, -1.836909530733566100E-016, 1.000000000000000000 ) ) ;
#148 = AXIS2_PLACEMENT_3D ( 'NONE', #166, #147, #146 ) ;
#149 = FACE_OUTER_BOUND ( 'NONE', #61, .T. ) ;
#150 = AXIS2_PLACEMENT_3D ( 'NONE', #151, #135, #152 ) ;
#151 = CARTESIAN_POINT ( 'NONE',  ( 0.0000000000000000000, 0.0000000000000000000, 2.000000000000000000 ) ) ;
#152 = DIRECTION ( 'NONE',  ( 0.0000000000000000000, -1.000000000000000000, -1.707404996040164500E-016 ) ) ;
#153 = CYLINDRICAL_SURFACE ( 'NONE', #109, 12.69999999999999900 ) ;
#154 = FACE_OUTER_BOUND ( 'NONE', #26, .T. ) ;
#155 = SHAPE_DEFINITION_REPRESENTATION ( #205, #160 ) ;
#156 = DIRECTION ( 'NONE',  ( 1.000000000000000000, 0.0000000000000000000, 0.0000000000000000000 ) ) ;
#157 = DIRECTION ( 'NONE',  ( 0.0000000000000000000, 0.0000000000000000000, 1.000000000000000000 ) ) ;
#158 = CARTESIAN_POINT ( 'NONE',  ( 0.0000000000000000000, 0.0000000000000000000, 0.0000000000000000000 ) ) ;
#159 = AXIS2_PLACEMENT_3D ( 'NONE', #158, #157, #156 ) ;
#160 = ADVANCED_BREP_SHAPE_REPRESENTATION ( '20218-E0W', ( #66, #159 ), #161 ) ;
#161 =( GEOMETRIC_REPRESENTATION_CONTEXT ( 3 ) GLOBAL_UNCERTAINTY_ASSIGNED_CONTEXT ( ( #162 ) ) GLOBAL_UNIT_ASSIGNED_CONTEXT ( ( #165, #164, #163 ) ) REPRESENTATION_CONTEXT ( 'NONE', 'WORKASPACE' ) );
#162 = UNCERTAINTY_MEASURE_WITH_UNIT (LENGTH_MEASURE( 1.000000000000000100E-005 ), #165, 'distance_accuracy_value', 'NONE');
#163 =( NAMED_UNIT ( * ) SI_UNIT ( $, .STERADIAN. ) SOLID_ANGLE_UNIT ( ) );
#164 =( NAMED_UNIT ( * ) PLANE_ANGLE_UNIT ( ) SI_UNIT ( $, .RADIAN. ) );
#165 =( LENGTH_UNIT ( ) NAMED_UNIT ( * ) SI_UNIT ( .MILLI., .METRE. ) );
#166 = CARTESIAN_POINT ( 'NONE',  ( 0.0000000000000000000, -2.143580871904552400E-016, 3.166949616211375100 ) ) ;
#167 = CIRCLE ( 'NONE', #148, 12.70000000000000100 ) ;
#168 = DIRECTION ( 'NONE',  ( 0.0000000000000000000, -1.000000000000000000, -1.878145495644181300E-016 ) ) ;
#169 = DIRECTION ( 'NONE',  ( 0.0000000000000000000, -1.836909530733566100E-016, 1.000000000000000000 ) ) ;
#170 = CARTESIAN_POINT ( 'NONE',  ( 0.0000000000000000000, 4.748114036908429900E-016, -0.5848382609307278800 ) ) ;
#171 = AXIS2_PLACEMENT_3D ( 'NONE', #170, #169, #168 ) ;
#172 = CIRCLE ( 'NONE', #171, 12.69999999999999800 ) ;
#173 = DIRECTION ( 'NONE',  ( 0.0000000000000000000, -1.000000000000000000, -1.707404996040164500E-016 ) ) ;
#174 = DIRECTION ( 'NONE',  ( 0.0000000000000000000, -1.836909530733566100E-016, 1.000000000000000000 ) ) ;
#175 = CARTESIAN_POINT ( 'NONE',  ( 0.0000000000000000000, 0.0000000000000000000, 2.000000000000000000 ) ) ;
#176 = CYLINDRICAL_SURFACE ( 'NONE', #150, 12.69999999999999900 ) ;
#177 = COORDINATED_UNIVERSAL_TIME_OFFSET ( 5, 0, .BEHIND. ) ;
#178 = CC_DESIGN_PERSON_AND_ORGANIZATION_ASSIGNMENT ( #180, #179, ( #192 ) ) ;
#179 = PERSON_AND_ORGANIZATION_ROLE ( 'creator' ) ;
#180 = PERSON_AND_ORGANIZATION ( #200, #199 ) ;
#181 = CC_DESIGN_APPROVAL ( #189, ( #192 ) ) ;
#182 = APPROVAL_DATE_TIME ( #183, #189 ) ;
#183 = DATE_AND_TIME ( #184, #185 ) ;
#184 = CALENDAR_DATE ( 2009, 14, 9 ) ;
#185 = LOCAL_TIME ( 16, 8, 11.00000000000000000, #186 ) ;
#186 = COORDINATED_UNIVERSAL_TIME_OFFSET ( 5, 0, .BEHIND. ) ;
#187 = APPROVAL_PERSON_ORGANIZATION ( #191, #189, #188 ) ;
#188 = APPROVAL_ROLE ( '' ) ;
#189 = APPROVAL ( #190, 'UNSPECIFIED' ) ;
#190 = APPROVAL_STATUS ( 'not_yet_approved' ) ;
#191 = PERSON_AND_ORGANIZATION ( #200, #199 ) ;
#192 = PRODUCT_DEFINITION ( 'UNKNOWN', '', #129, #193 ) ;
#193 = DESIGN_CONTEXT ( 'detailed design', #195, 'design' ) ;
#194 = APPLICATION_PROTOCOL_DEFINITION ( 'international standard', 'config_control_design', 1994, #195 ) ;
#195 = APPLICATION_CONTEXT ( 'configuration controlled 3d designs of mechanical parts and assemblies' ) ;
#196 = CC_DESIGN_PERSON_AND_ORGANIZATION_ASSIGNMENT ( #198, #197, ( #201 ) ) ;
#197 = PERSON_AND_ORGANIZATION_ROLE ( 'design_owner' ) ;
#198 = PERSON_AND_ORGANIZATION ( #200, #199 ) ;
#199 = ORGANIZATION ( 'UNSPECIFIED', 'UNSPECIFIED', '' ) ;
#200 = PERSON ( 'UNSPECIFIED', 'UNSPECIFIED', 'UNSPECIFIED', ('UNSPECIFIED'), ('UNSPECIFIED'), ('UNSPECIFIED') ) ;
#201 = PRODUCT ( '20218-E0W', '20218-E0W', '', ( #202 ) ) ;
#202 = MECHANICAL_CONTEXT ( 'NONE', #204, 'mechanical' ) ;
#203 = APPLICATION_PROTOCOL_DEFINITION ( 'international standard', 'config_control_design', 1994, #204 ) ;
#204 = APPLICATION_CONTEXT ( 'configuration controlled 3d designs of mechanical parts and assemblies' ) ;
#205 = PRODUCT_DEFINITION_SHAPE ( 'NONE', 'NONE',  #192 ) ;
#206 = PRODUCT_RELATED_PRODUCT_CATEGORY ( 'detail', '', ( #201 ) ) ;
#207 = CC_DESIGN_SECURITY_CLASSIFICATION ( #110, ( #129 ) ) ;
#208 = CC_DESIGN_APPROVAL ( #216, ( #110 ) ) ;
#209 = APPROVAL_DATE_TIME ( #210, #216 ) ;
#210 = DATE_AND_TIME ( #211, #212 ) ;
#211 = CALENDAR_DATE ( 2009, 14, 9 ) ;
#212 = LOCAL_TIME ( 16, 8, 11.00000000000000000, #213 ) ;
#213 = COORDINATED_UNIVERSAL_TIME_OFFSET ( 5, 0, .BEHIND. ) ;
#214 = APPROVAL_PERSON_ORGANIZATION ( #218, #216, #215 ) ;
#215 = APPROVAL_ROLE ( '' ) ;
#216 = APPROVAL ( #217, 'UNSPECIFIED' ) ;
#217 = APPROVAL_STATUS ( 'not_yet_approved' ) ;
#218 = PERSON_AND_ORGANIZATION ( #200, #199 ) ;
#219 = CC_DESIGN_DATE_AND_TIME_ASSIGNMENT ( #221, #220, ( #110 ) ) ;
#220 = DATE_TIME_ROLE ( 'classification_date' ) ;
#221 = DATE_AND_TIME ( #222, #223 ) ;
#222 = CALENDAR_DATE ( 2009, 14, 9 ) ;
#223 = LOCAL_TIME ( 16, 8, 11.00000000000000000, #224 ) ;
#224 = COORDINATED_UNIVERSAL_TIME_OFFSET ( 5, 0, .BEHIND. ) ;
#225 = CC_DESIGN_PERSON_AND_ORGANIZATION_ASSIGNMENT ( #227, #226, ( #110 ) ) ;
#226 = PERSON_AND_ORGANIZATION_ROLE ( 'classification_officer' ) ;
#227 = PERSON_AND_ORGANIZATION ( #200, #199 ) ;
ENDSEC;
END-ISO-10303-21;
