ISO-10303-21;
HEADER;
FILE_DESCRIPTION (( 'STEP AP203' ),
    '1' );
FILE_NAME ('20mm BEAMSPLITTER CUBE TS_48883.step',
    '2021-09-20T13:43:12',
    ( '' ),
    ( '' ),
    'SwSTEP 2.0',
    'SolidWorks 2018',
    '' );
FILE_SCHEMA (( 'CONFIG_CONTROL_DESIGN' ));
ENDSEC;

DATA;
#1 = CARTESIAN_POINT ( 'NONE',  ( 0.000000000000000000, 0.000000000000000000, 0.000000000000000000 ) ) ;
#2 = PLANE ( 'NONE',  #319 ) ;
#3 = PLANE ( 'NONE',  #86 ) ;
#4 = DESIGN_CONTEXT ( 'detailed design', #49, 'design' ) ;
#5 = APPROVAL_DATE_TIME ( #160, #195 ) ;
#6 = EDGE_LOOP ( 'NONE', ( #228, #301, #22 ) ) ;
#7 = PERSON_AND_ORGANIZATION_ROLE ( 'creator' ) ;
#8 = APPROVAL_ROLE ( '' ) ;
#9 = COORDINATED_UNIVERSAL_TIME_OFFSET ( 5, 0, .BEHIND. ) ;
#10 = EDGE_LOOP ( 'NONE', ( #199, #264, #13, #107 ) ) ;
#11 = DATE_AND_TIME ( #206, #336 ) ;
#12 = PERSON_AND_ORGANIZATION ( #333, #328 ) ;
#13 = ORIENTED_EDGE ( 'NONE', *, *, #162, .F. ) ;
#14 = SHAPE_DEFINITION_REPRESENTATION ( #57, #157 ) ;
#15 = APPROVAL ( #166, 'UNKNOWN' ) ;
#16 = CC_DESIGN_SECURITY_CLASSIFICATION ( #75, ( #361 ) ) ;
#17 = UNCERTAINTY_MEASURE_WITH_UNIT (LENGTH_MEASURE( 1.000000000000000082E-05 ), #308, 'distance_accuracy_value', 'NONE');
#18 = COORDINATED_UNIVERSAL_TIME_OFFSET ( 5, 0, .BEHIND. ) ;
#19 = APPLICATION_PROTOCOL_DEFINITION ( 'international standard', 'config_control_design', 1994, #164 ) ;
#20 = AXIS2_PLACEMENT_3D ( 'NONE', #59, #174, #269 ) ;
#21 = PERSON_AND_ORGANIZATION_ROLE ( 'classification_officer' ) ;
#22 = ORIENTED_EDGE ( 'NONE', *, *, #24, .F. ) ;
#23 = APPROVAL_STATUS ( 'not_yet_approved' ) ;
#24 = EDGE_CURVE ( 'NONE', #359, #344, #213, .T. ) ;
#25 = APPROVAL ( #237, 'UNSPECIFIED' ) ;
#26 = LINE ( 'NONE', #141, #168 ) ;
#27 = PERSON_AND_ORGANIZATION ( #333, #328 ) ;
#28 = EDGE_CURVE ( 'NONE', #277, #359, #131, .T. ) ;
#29 = ADVANCED_FACE ( 'NONE', ( #349 ), #108, .T. ) ;
#30 = SHAPE_DEFINITION_REPRESENTATION ( #205, #256 ) ;
#31 = CALENDAR_DATE ( 2021, 20, 9 ) ;
#32 = CC_DESIGN_PERSON_AND_ORGANIZATION_ASSIGNMENT ( #276, #335, ( #177 ) ) ;
#33 = DIRECTION ( 'NONE',  ( 0.000000000000000000, 0.000000000000000000, 1.000000000000000000 ) ) ;
#34 = FACE_OUTER_BOUND ( 'NONE', #6, .T. ) ;
#35 = CARTESIAN_POINT ( 'NONE',  ( 8.700747372918609639E-17, 14.14213562373087640, -10.00000000000001066 ) ) ;
#36 = APPROVAL_DATE_TIME ( #139, #15 ) ;
#37 = LOCAL_TIME ( 9, 43, 12.00000000000000000, #47 ) ;
#38 = CARTESIAN_POINT ( 'NONE',  ( 14.14213562373104693, -1.818507718094545588E-15, 10.00000000000001066 ) ) ;
#39 = CALENDAR_DATE ( 2021, 20, 9 ) ;
#40 = PERSON_AND_ORGANIZATION_ROLE ( 'classification_officer' ) ;
#41 = PERSON_AND_ORGANIZATION_ROLE ( 'design_owner' ) ;
#42 = CC_DESIGN_PERSON_AND_ORGANIZATION_ASSIGNMENT ( #125, #7, ( #322 ) ) ;
#43 = ADVANCED_BREP_SHAPE_REPRESENTATION ( '', ( #69, #285 ), #337 ) ;
#44 = LOCAL_TIME ( 9, 43, 12.00000000000000000, #9 ) ;
#45 = PRODUCT_DEFINITION_SHAPE ( 'NONE', 'NONE',  #361 ) ;
#46 = CC_DESIGN_PERSON_AND_ORGANIZATION_ASSIGNMENT ( #262, #345, ( #307 ) ) ;
#47 = COORDINATED_UNIVERSAL_TIME_OFFSET ( 5, 0, .BEHIND. ) ;
#48 = PERSON_AND_ORGANIZATION ( #333, #328 ) ;
#49 = APPLICATION_CONTEXT ( 'configuration controlled 3d designs of mechanical parts and assemblies' ) ;
#50 = DATE_TIME_ROLE ( 'classification_date' ) ;
#51 = APPROVAL_ROLE ( '' ) ;
#52 = PRODUCT_DEFINITION ( 'UNKNOWN', '', #326, #4 ) ;
#53 = CLOSED_SHELL ( 'NONE', ( #265, #170, #138, #29, #239 ) ) ;
#54 = CARTESIAN_POINT ( 'NONE',  ( 14.14213562373104693, -1.818507718094545588E-15, -10.00000000000001066 ) ) ;
#55 = CC_DESIGN_DATE_AND_TIME_ASSIGNMENT ( #171, #248, ( #322 ) ) ;
#56 = VECTOR ( 'NONE', #223, 1000.000000000000000 ) ;
#57 = PRODUCT_DEFINITION_SHAPE ( 'NONE', 'NONE',  #52 ) ;
#58 = LINE ( 'NONE', #85, #252 ) ;
#59 = CARTESIAN_POINT ( 'NONE',  ( 0.000000000000000000, 0.000000000000000000, 0.000000000000000000 ) ) ;
#60 = CARTESIAN_POINT ( 'NONE',  ( 8.700747372918609639E-17, 14.14213562373087640, 10.00000000000001066 ) ) ;
#61 = PERSON ( 'NAUO-PER1', 'UNSPECIFIED', 'UNSPECIFIED', ('UNSPECIFIED'), ('UNSPECIFIED'), ('UNSPECIFIED') ) ;
#62 = COORDINATED_UNIVERSAL_TIME_OFFSET ( 5, 0, .BEHIND. ) ;
#63 = EDGE_CURVE ( 'NONE', #194, #359, #142, .T. ) ;
#64 = MECHANICAL_CONTEXT ( 'NONE', #153, 'mechanical' ) ;
#65 = LINE ( 'NONE', #198, #190 ) ;
#66 = FACE_OUTER_BOUND ( 'NONE', #184, .T. ) ;
#67 =( GEOMETRIC_REPRESENTATION_CONTEXT ( 3 ) GLOBAL_UNCERTAINTY_ASSIGNED_CONTEXT ( ( #17 ) ) GLOBAL_UNIT_ASSIGNED_CONTEXT ( ( #308, #196, #113 ) ) REPRESENTATION_CONTEXT ( 'NONE', 'WORKASPACE' ) );
#68 = PERSON_AND_ORGANIZATION ( #110, #226 ) ;
#69 = MANIFOLD_SOLID_BREP ( 'Boss-Extrude1', #53 ) ;
#70 = COORDINATED_UNIVERSAL_TIME_OFFSET ( 5, 0, .BEHIND. ) ;
#71 = SECURITY_CLASSIFICATION_LEVEL ( 'unclassified' ) ;
#72 = APPROVAL ( #348, 'UNSPECIFIED' ) ;
#73 = CALENDAR_DATE ( 2021, 20, 9 ) ;
#74 = DATE_TIME_ROLE ( 'classification_date' ) ;
#75 = SECURITY_CLASSIFICATION ( '', '', #210 ) ;
#76 = LOCAL_TIME ( 9, 43, 12.00000000000000000, #293 ) ;
#77 = CC_DESIGN_APPROVAL ( #173, ( #177 ) ) ;
#78 = CALENDAR_DATE ( 2021, 20, 9 ) ;
#79 = CARTESIAN_POINT ( 'NONE',  ( -14.14213562373104693, 3.009265538105056020E-32, 10.00000000000001066 ) ) ;
#80 = DIRECTION ( 'NONE',  ( -0.7071067811865515695, 0.7071067811865435759, 0.000000000000000000 ) ) ;
#81 = PERSON_AND_ORGANIZATION ( #333, #328 ) ;
#82 = DIRECTION ( 'NONE',  ( 0.000000000000000000, 0.000000000000000000, 1.000000000000000000 ) ) ;
#83 = APPROVAL ( #181, 'UNSPECIFIED' ) ;
#84 =( NAMED_UNIT ( * ) PLANE_ANGLE_UNIT ( ) SI_UNIT ( $, .RADIAN. ) );
#85 = CARTESIAN_POINT ( 'NONE',  ( -14.14213562373104693, 3.009265538105056020E-32, 10.00000000000001066 ) ) ;
#86 = AXIS2_PLACEMENT_3D ( 'NONE', #60, #242, #89 ) ;
#87 = DATE_AND_TIME ( #343, #135 ) ;
#88 = ORIENTED_EDGE ( 'NONE', *, *, #63, .F. ) ;
#89 = DIRECTION ( 'NONE',  ( 0.7071067811865515695, 0.7071067811865434649, 0.000000000000000000 ) ) ;
#90 = CARTESIAN_POINT ( 'NONE',  ( 14.14213562373104693, -1.818507718094545588E-15, 10.00000000000001066 ) ) ;
#91 = APPLICATION_PROTOCOL_DEFINITION ( 'international standard', 'config_control_design', 1994, #121 ) ;
#92 = DATE_TIME_ROLE ( 'classification_date' ) ;
#93 = CC_DESIGN_APPROVAL ( #25, ( #326 ) ) ;
#94 = APPROVAL_PERSON_ORGANIZATION ( #81, #173, #201 ) ;
#95 = CALENDAR_DATE ( 2021, 20, 9 ) ;
#96 = FACE_OUTER_BOUND ( 'NONE', #289, .T. ) ;
#97 = AXIS2_PLACEMENT_3D ( 'NONE', #278, #325, #330 ) ;
#98 = APPROVAL_DATE_TIME ( #292, #126 ) ;
#99 =( REPRESENTATION_RELATIONSHIP ('NONE','NONE', #256, #157 ) REPRESENTATION_RELATIONSHIP_WITH_TRANSFORMATION ( #133 )SHAPE_REPRESENTATION_RELATIONSHIP( ) );
#100 = LOCAL_TIME ( 9, 43, 12.00000000000000000, #111 ) ;
#101 = APPROVAL_ROLE ( '' ) ;
#102 = CC_DESIGN_DATE_AND_TIME_ASSIGNMENT ( #192, #130, ( #75 ) ) ;
#103 = PERSON_AND_ORGANIZATION_ROLE ( 'design_owner' ) ;
#104 = APPROVAL_ROLE ( '' ) ;
#105 = CC_DESIGN_PERSON_AND_ORGANIZATION_ASSIGNMENT ( #146, #317, ( #326 ) ) ;
#106 = LOCAL_TIME ( 9, 43, 12.00000000000000000, #215 ) ;
#107 = ORIENTED_EDGE ( 'NONE', *, *, #251, .T. ) ;
#108 = PLANE ( 'NONE',  #240 ) ;
#109 = CARTESIAN_POINT ( 'NONE',  ( -14.14213562373104693, 3.009265538105056020E-32, 10.00000000000001066 ) ) ;
#110 = PERSON ( 'NAUO-PER2', 'UNSPECIFIED', 'UNSPECIFIED', ('UNSPECIFIED'), ('UNSPECIFIED'), ('UNSPECIFIED') ) ;
#111 = COORDINATED_UNIVERSAL_TIME_OFFSET ( 5, 0, .BEHIND. ) ;
#112 = CC_DESIGN_PERSON_AND_ORGANIZATION_ASSIGNMENT ( #342, #127, ( #326 ) ) ;
#113 =( NAMED_UNIT ( * ) SI_UNIT ( $, .STERADIAN. ) SOLID_ANGLE_UNIT ( ) );
#114 = DIRECTION ( 'NONE',  ( -0.7071067811865435759, -0.7071067811865515695, 0.000000000000000000 ) ) ;
#115 = APPROVAL_PERSON_ORGANIZATION ( #338, #83, #8 ) ;
#116 = CARTESIAN_POINT ( 'NONE',  ( 8.700747372918609639E-17, 14.14213562373087640, 10.00000000000001066 ) ) ;
#117 = APPROVAL_PERSON_ORGANIZATION ( #27, #207, #254 ) ;
#118 = CC_DESIGN_PERSON_AND_ORGANIZATION_ASSIGNMENT ( #208, #40, ( #318 ) ) ;
#119 = CARTESIAN_POINT ( 'NONE',  ( 14.14213562373104693, -1.818507718094545588E-15, -10.00000000000001066 ) ) ;
#120 = VECTOR ( 'NONE', #176, 999.9999999999998863 ) ;
#121 = APPLICATION_CONTEXT ( 'configuration controlled 3d designs of mechanical parts and assemblies' ) ;
#122 = CC_DESIGN_PERSON_AND_ORGANIZATION_ASSIGNMENT ( #68, #259, ( #75 ) ) ;
#123 = CC_DESIGN_APPROVAL ( #195, ( #318 ) ) ;
#124 = VECTOR ( 'NONE', #218, 999.9999999999998863 ) ;
#125 = PERSON_AND_ORGANIZATION ( #333, #328 ) ;
#126 = APPROVAL ( #347, 'UNKNOWN' ) ;
#127 = PERSON_AND_ORGANIZATION_ROLE ( 'creator' ) ;
#128 = PERSON_AND_ORGANIZATION_ROLE ( 'creator' ) ;
#129 = PRODUCT_RELATED_PRODUCT_CATEGORY ( 'detail', '', ( #245 ) ) ;
#130 = DATE_TIME_ROLE ( 'classification_date' ) ;
#131 = LINE ( 'NONE', #54, #191 ) ;
#132 = DESIGN_CONTEXT ( 'detailed design', #121, 'design' ) ;
#133 = ITEM_DEFINED_TRANSFORMATION ( 'NONE', 'NONE', #290,  #285 ) ;
#134 = CALENDAR_DATE ( 2021, 20, 9 ) ;
#135 = LOCAL_TIME ( 9, 43, 12.00000000000000000, #62 ) ;
#136 = DIRECTION ( 'NONE',  ( 1.000000000000000000, 0.000000000000000000, 0.000000000000000000 ) ) ;
#137 = CARTESIAN_POINT ( 'NONE',  ( -14.14213562373104693, 3.009265538105056020E-32, 10.00000000000001066 ) ) ;
#138 = ADVANCED_FACE ( 'NONE', ( #149 ), #352, .F. ) ;
#139 = DATE_AND_TIME ( #209, #280 ) ;
#140 = APPROVAL_PERSON_ORGANIZATION ( #281, #15, #212 ) ;
#141 = CARTESIAN_POINT ( 'NONE',  ( -14.14213562373104693, 3.009265538105056020E-32, -10.00000000000001066 ) ) ;
#142 = LINE ( 'NONE', #324, #217 ) ;
#143 = DIRECTION ( 'NONE',  ( 0.000000000000000000, -0.000000000000000000, -1.000000000000000000 ) ) ;
#144 = DIRECTION ( 'NONE',  ( 1.000000000000000000, 0.000000000000000000, 0.000000000000000000 ) ) ;
#145 = DIRECTION ( 'NONE',  ( 1.000000000000000000, 0.000000000000000000, 0.000000000000000000 ) ) ;
#146 = PERSON_AND_ORGANIZATION ( #333, #328 ) ;
#147 = DIRECTION ( 'NONE',  ( 1.000000000000000000, 0.000000000000000000, 0.000000000000000000 ) ) ;
#148 = APPROVAL_PERSON_ORGANIZATION ( #286, #72, #255 ) ;
#149 = FACE_OUTER_BOUND ( 'NONE', #10, .T. ) ;
#150 = APPROVAL_STATUS ( 'not_yet_approved' ) ;
#151 = ORGANIZATION ( 'NAUO-ORG1', 'UNSPECIFIED', 'UNSPECIFIED' ) ;
#152 = LOCAL_TIME ( 9, 43, 12.00000000000000000, #312 ) ;
#153 = APPLICATION_CONTEXT ( 'configuration controlled 3d designs of mechanical parts and assemblies' ) ;
#154 = CC_DESIGN_DATE_AND_TIME_ASSIGNMENT ( #11, #288, ( #52 ) ) ;
#155 = LOCAL_TIME ( 9, 43, 12.00000000000000000, #221 ) ;
#156 = ORIENTED_EDGE ( 'NONE', *, *, #63, .T. ) ;
#157 = SHAPE_REPRESENTATION ( '20x20 Right Angle Prism Master', ( #285 ), #337 ) ;
#158 = COORDINATED_UNIVERSAL_TIME_OFFSET ( 5, 0, .BEHIND. ) ;
#159 = CC_DESIGN_APPROVAL ( #83, ( #322 ) ) ;
#160 = DATE_AND_TIME ( #78, #227 ) ;
#161 = LINE ( 'NONE', #244, #120 ) ;
#162 = EDGE_CURVE ( 'NONE', #172, #203, #339, .T. ) ;
#163 = SECURITY_CLASSIFICATION_LEVEL ( 'unclassified' ) ;
#164 = APPLICATION_CONTEXT ( 'configuration controlled 3d designs of mechanical parts and assemblies' ) ;
#165 = ORIENTED_EDGE ( 'NONE', *, *, #28, .T. ) ;
#166 = APPROVAL_STATUS ( 'not_yet_approved' ) ;
#167 = CC_DESIGN_DATE_AND_TIME_ASSIGNMENT ( #273, #50, ( #307 ) ) ;
#168 = VECTOR ( 'NONE', #179, 1000.000000000000000 ) ;
#169 = COORDINATED_UNIVERSAL_TIME_OFFSET ( 5, 0, .BEHIND. ) ;
#170 = ADVANCED_FACE ( 'NONE', ( #66 ), #3, .F. ) ;
#171 = DATE_AND_TIME ( #234, #100 ) ;
#172 = VERTEX_POINT ( 'NONE', #79 ) ;
#173 = APPROVAL ( #150, 'UNSPECIFIED' ) ;
#174 = DIRECTION ( 'NONE',  ( 5.551115123125782702E-17, 0.000000000000000000, 1.000000000000000222 ) ) ;
#175 = ORIENTED_EDGE ( 'NONE', *, *, #311, .T. ) ;
#176 = DIRECTION ( 'NONE',  ( -0.7071067811865515695, -0.7071067811865435759, 0.000000000000000000 ) ) ;
#177 = PRODUCT_DEFINITION_FORMATION_WITH_SPECIFIED_SOURCE ( 'ANY', '', #303, .NOT_KNOWN. ) ;
#178 = CC_DESIGN_APPROVAL ( #126, ( #75 ) ) ;
#179 = DIRECTION ( 'NONE',  ( 1.000000000000000000, -6.429395695523596264E-17, 0.000000000000000000 ) ) ;
#180 = APPROVAL_DATE_TIME ( #257, #72 ) ;
#181 = APPROVAL_STATUS ( 'not_yet_approved' ) ;
#182 = CC_DESIGN_APPROVAL ( #207, ( #307 ) ) ;
#183 = CALENDAR_DATE ( 2021, 20, 9 ) ;
#184 = EDGE_LOOP ( 'NONE', ( #230, #231, #268, #156 ) ) ;
#185 = LOCAL_TIME ( 9, 43, 12.00000000000000000, #266 ) ;
#186 = APPROVAL_DATE_TIME ( #309, #83 ) ;
#187 =( REPRESENTATION_RELATIONSHIP ('NONE','NONE', #256, #157 ) REPRESENTATION_RELATIONSHIP_WITH_TRANSFORMATION ( #202 )SHAPE_REPRESENTATION_RELATIONSHIP( ) );
#188 = SECURITY_CLASSIFICATION ( '', '', #71 ) ;
#189 = MECHANICAL_CONTEXT ( 'NONE', #164, 'mechanical' ) ;
#190 = VECTOR ( 'NONE', #143, 1000.000000000000000 ) ;
#191 = VECTOR ( 'NONE', #80, 1000.000000000000000 ) ;
#192 = DATE_AND_TIME ( #134, #185 ) ;
#193 = PERSON_AND_ORGANIZATION ( #333, #328 ) ;
#194 = VERTEX_POINT ( 'NONE', #116 ) ;
#195 = APPROVAL ( #340, 'UNSPECIFIED' ) ;
#196 =( NAMED_UNIT ( * ) PLANE_ANGLE_UNIT ( ) SI_UNIT ( $, .RADIAN. ) );
#197 = DIRECTION ( 'NONE',  ( 1.000000000000000000, 0.000000000000000000, 0.000000000000000000 ) ) ;
#198 = CARTESIAN_POINT ( 'NONE',  ( 14.14213562373104693, -1.818507718094545588E-15, 10.00000000000001066 ) ) ;
#199 = ORIENTED_EDGE ( 'NONE', *, *, #270, .T. ) ;
#200 = SECURITY_CLASSIFICATION_LEVEL ( 'unclassified' ) ;
#201 = APPROVAL_ROLE ( '' ) ;
#202 = ITEM_DEFINED_TRANSFORMATION ( 'NONE', 'NONE', #20,  #285 ) ;
#203 = VERTEX_POINT ( 'NONE', #327 ) ;
#204 = APPROVAL_DATE_TIME ( #236, #207 ) ;
#205 = PRODUCT_DEFINITION_SHAPE ( 'NONE', 'NONE',  #322 ) ;
#206 = CALENDAR_DATE ( 2021, 20, 9 ) ;
#207 = APPROVAL ( #23, 'UNSPECIFIED' ) ;
#208 = PERSON_AND_ORGANIZATION ( #333, #328 ) ;
#209 = CALENDAR_DATE ( 2021, 20, 9 ) ;
#210 = SECURITY_CLASSIFICATION_LEVEL ( 'unclassified' ) ;
#211 = CONTEXT_DEPENDENT_SHAPE_REPRESENTATION ( #99, #358 ) ;
#212 = APPROVAL_ROLE ( '' ) ;
#213 = LINE ( 'NONE', #219, #124 ) ;
#214 = CC_DESIGN_APPROVAL ( #15, ( #188 ) ) ;
#215 = COORDINATED_UNIVERSAL_TIME_OFFSET ( 5, 0, .BEHIND. ) ;
#216 = PERSON_AND_ORGANIZATION ( #333, #328 ) ;
#217 = VECTOR ( 'NONE', #298, 1000.000000000000000 ) ;
#218 = DIRECTION ( 'NONE',  ( -0.7071067811865515695, -0.7071067811865435759, 0.000000000000000000 ) ) ;
#219 = CARTESIAN_POINT ( 'NONE',  ( 8.700747372918609639E-17, 14.14213562373087640, -10.00000000000001066 ) ) ;
#220 = CC_DESIGN_SECURITY_CLASSIFICATION ( #318, ( #177 ) ) ;
#221 = COORDINATED_UNIVERSAL_TIME_OFFSET ( 5, 0, .BEHIND. ) ;
#222 = ORIENTED_EDGE ( 'NONE', *, *, #162, .T. ) ;
#223 = DIRECTION ( 'NONE',  ( -0.7071067811865515695, 0.7071067811865435759, 0.000000000000000000 ) ) ;
#224 = CARTESIAN_POINT ( 'NONE',  ( -14.14213562373104693, 3.009265538105056020E-32, -10.00000000000001066 ) ) ;
#225 =( NAMED_UNIT ( * ) SI_UNIT ( $, .STERADIAN. ) SOLID_ANGLE_UNIT ( ) );
#226 = ORGANIZATION ( 'NAUO-ORG2', 'UNSPECIFIED', 'UNSPECIFIED' ) ;
#227 = LOCAL_TIME ( 9, 43, 12.00000000000000000, #70 ) ;
#228 = ORIENTED_EDGE ( 'NONE', *, *, #28, .F. ) ;
#229 =( LENGTH_UNIT ( ) NAMED_UNIT ( * ) SI_UNIT ( .MILLI., .METRE. ) );
#230 = ORIENTED_EDGE ( 'NONE', *, *, #24, .T. ) ;
#231 = ORIENTED_EDGE ( 'NONE', *, *, #251, .F. ) ;
#232 = CALENDAR_DATE ( 2021, 20, 9 ) ;
#233 = APPLICATION_PROTOCOL_DEFINITION ( 'international standard', 'config_control_design', 1994, #49 ) ;
#234 = CALENDAR_DATE ( 2021, 20, 9 ) ;
#235 = CC_DESIGN_PERSON_AND_ORGANIZATION_ASSIGNMENT ( #250, #41, ( #303 ) ) ;
#236 = DATE_AND_TIME ( #31, #152 ) ;
#237 = APPROVAL_STATUS ( 'not_yet_approved' ) ;
#238 = CC_DESIGN_DATE_AND_TIME_ASSIGNMENT ( #87, #92, ( #318 ) ) ;
#239 = ADVANCED_FACE ( 'NONE', ( #34 ), #2, .F. ) ;
#240 = AXIS2_PLACEMENT_3D ( 'NONE', #295, #323, #136 ) ;
#241 = DIRECTION ( 'NONE',  ( 0.000000000000000000, -0.000000000000000000, -1.000000000000000000 ) ) ;
#242 = DIRECTION ( 'NONE',  ( 0.7071067811865434649, -0.7071067811865515695, 0.000000000000000000 ) ) ;
#243 = COORDINATED_UNIVERSAL_TIME_OFFSET ( 5, 0, .BEHIND. ) ;
#244 = CARTESIAN_POINT ( 'NONE',  ( 8.700747372918609639E-17, 14.14213562373087640, 10.00000000000001066 ) ) ;
#245 = PRODUCT ( '20x20 Right Angle Prism Master', '20x20 Right Angle Prism Master', '', ( #189 ) ) ;
#246 = PLANE ( 'NONE',  #261 ) ;
#247 = DATE_AND_TIME ( #95, #106 ) ;
#248 = DATE_TIME_ROLE ( 'creation_date' ) ;
#249 = CC_DESIGN_SECURITY_CLASSIFICATION ( #188, ( #360 ) ) ;
#250 = PERSON_AND_ORGANIZATION ( #333, #328 ) ;
#251 = EDGE_CURVE ( 'NONE', #172, #344, #58, .T. ) ;
#252 = VECTOR ( 'NONE', #241, 1000.000000000000000 ) ;
#253 = CC_DESIGN_PERSON_AND_ORGANIZATION_ASSIGNMENT ( #353, #313, ( #177 ) ) ;
#254 = APPROVAL_ROLE ( '' ) ;
#255 = APPROVAL_ROLE ( '' ) ;
#256 = SHAPE_REPRESENTATION ( '20mm BEAMSPLITTER CUBE TS_48883', ( #354, #290, #20 ), #67 ) ;
#257 = DATE_AND_TIME ( #314, #316 ) ;
#258 = CC_DESIGN_PERSON_AND_ORGANIZATION_ASSIGNMENT ( #281, #21, ( #188 ) ) ;
#259 = PERSON_AND_ORGANIZATION_ROLE ( 'classification_officer' ) ;
#260 = CC_DESIGN_DATE_AND_TIME_ASSIGNMENT ( #356, #74, ( #188 ) ) ;
#261 = AXIS2_PLACEMENT_3D ( 'NONE', #90, #114, #302 ) ;
#262 = PERSON_AND_ORGANIZATION ( #333, #328 ) ;
#263 = DIRECTION ( 'NONE',  ( 1.000000000000000000, -6.429395695523596264E-17, 0.000000000000000000 ) ) ;
#264 = ORIENTED_EDGE ( 'NONE', *, *, #311, .F. ) ;
#265 = ADVANCED_FACE ( 'NONE', ( #96 ), #246, .F. ) ;
#266 = COORDINATED_UNIVERSAL_TIME_OFFSET ( 5, 0, .BEHIND. ) ;
#267 = CARTESIAN_POINT ( 'NONE',  ( 0.000000000000000000, 0.000000000000000000, 0.000000000000000000 ) ) ;
#268 = ORIENTED_EDGE ( 'NONE', *, *, #291, .F. ) ;
#269 = DIRECTION ( 'NONE',  ( -1.000000000000000222, 0.000000000000000000, 5.551115123125782702E-17 ) ) ;
#270 = EDGE_CURVE ( 'NONE', #344, #277, #26, .T. ) ;
#271 = DIRECTION ( 'NONE',  ( 0.000000000000000000, 0.000000000000000000, 1.000000000000000000 ) ) ;
#272 = CONTEXT_DEPENDENT_SHAPE_REPRESENTATION ( #187, #45 ) ;
#273 = DATE_AND_TIME ( #351, #76 ) ;
#274 = CARTESIAN_POINT ( 'NONE',  ( 0.000000000000000000, 0.000000000000000000, -10.00000000000001066 ) ) ;
#275 = CC_DESIGN_APPROVAL ( #72, ( #52 ) ) ;
#276 = PERSON_AND_ORGANIZATION ( #333, #328 ) ;
#277 = VERTEX_POINT ( 'NONE', #119 ) ;
#278 = CARTESIAN_POINT ( 'NONE',  ( 0.000000000000000000, 0.000000000000000000, 0.000000000000000000 ) ) ;
#279 = APPLICATION_PROTOCOL_DEFINITION ( 'international standard', 'config_control_design', 1994, #153 ) ;
#280 = LOCAL_TIME ( 9, 43, 12.00000000000000000, #169 ) ;
#281 = PERSON_AND_ORGANIZATION ( #61, #151 ) ;
#282 = AXIS2_PLACEMENT_3D ( 'NONE', #109, #355, #299 ) ;
#283 = APPROVAL_DATE_TIME ( #346, #173 ) ;
#284 = ORIENTED_EDGE ( 'NONE', *, *, #291, .T. ) ;
#285 = AXIS2_PLACEMENT_3D ( 'NONE', #267, #82, #144 ) ;
#286 = PERSON_AND_ORGANIZATION ( #333, #328 ) ;
#287 = EDGE_LOOP ( 'NONE', ( #321, #284, #222 ) ) ;
#288 = DATE_TIME_ROLE ( 'creation_date' ) ;
#289 = EDGE_LOOP ( 'NONE', ( #165, #88, #296, #175 ) ) ;
#290 = AXIS2_PLACEMENT_3D ( 'NONE', #332, #33, #197 ) ;
#291 = EDGE_CURVE ( 'NONE', #194, #172, #161, .T. ) ;
#292 = DATE_AND_TIME ( #39, #304 ) ;
#293 = COORDINATED_UNIVERSAL_TIME_OFFSET ( 5, 0, .BEHIND. ) ;
#294 = APPROVAL_PERSON_ORGANIZATION ( #12, #195, #51 ) ;
#295 = CARTESIAN_POINT ( 'NONE',  ( 0.000000000000000000, 0.000000000000000000, 10.00000000000001066 ) ) ;
#296 = ORIENTED_EDGE ( 'NONE', *, *, #331, .F. ) ;
#297 = CC_DESIGN_PERSON_AND_ORGANIZATION_ASSIGNMENT ( #48, #128, ( #52 ) ) ;
#298 = DIRECTION ( 'NONE',  ( 0.000000000000000000, -0.000000000000000000, -1.000000000000000000 ) ) ;
#299 = DIRECTION ( 'NONE',  ( -1.000000000000000000, 6.429395695523596264E-17, 0.000000000000000000 ) ) ;
#300 = LINE ( 'NONE', #38, #56 ) ;
#301 = ORIENTED_EDGE ( 'NONE', *, *, #270, .F. ) ;
#302 = DIRECTION ( 'NONE',  ( 0.7071067811865514585, -0.7071067811865434649, 0.000000000000000000 ) ) ;
#303 = PRODUCT ( '20mm BEAMSPLITTER CUBE TS_48883', '20mm BEAMSPLITTER CUBE TS_48883', '', ( #64 ) ) ;
#304 = LOCAL_TIME ( 9, 43, 12.00000000000000000, #18 ) ;
#305 = UNCERTAINTY_MEASURE_WITH_UNIT (LENGTH_MEASURE( 1.000000000000000082E-05 ), #229, 'distance_accuracy_value', 'NONE');
#306 = APPROVAL_DATE_TIME ( #247, #25 ) ;
#307 = SECURITY_CLASSIFICATION ( '', '', #163 ) ;
#308 =( LENGTH_UNIT ( ) NAMED_UNIT ( * ) SI_UNIT ( .MILLI., .METRE. ) );
#309 = DATE_AND_TIME ( #183, #44 ) ;
#310 = DIRECTION ( 'NONE',  ( 0.000000000000000000, 0.000000000000000000, 1.000000000000000000 ) ) ;
#311 = EDGE_CURVE ( 'NONE', #203, #277, #65, .T. ) ;
#312 = COORDINATED_UNIVERSAL_TIME_OFFSET ( 5, 0, .BEHIND. ) ;
#313 = PERSON_AND_ORGANIZATION_ROLE ( 'creator' ) ;
#314 = CALENDAR_DATE ( 2021, 20, 9 ) ;
#315 = SHAPE_REPRESENTATION_RELATIONSHIP ( 'NONE' , 'NONE' ,  #157, #43 ) ;
#316 = LOCAL_TIME ( 9, 43, 12.00000000000000000, #243 ) ;
#317 = PERSON_AND_ORGANIZATION_ROLE ( 'design_supplier' ) ;
#318 = SECURITY_CLASSIFICATION ( '', '', #200 ) ;
#319 = AXIS2_PLACEMENT_3D ( 'NONE', #274, #310, #147 ) ;
#320 = APPROVAL_PERSON_ORGANIZATION ( #193, #25, #104 ) ;
#321 = ORIENTED_EDGE ( 'NONE', *, *, #331, .T. ) ;
#322 = PRODUCT_DEFINITION ( 'UNKNOWN', '', #177, #132 ) ;
#323 = DIRECTION ( 'NONE',  ( 0.000000000000000000, 0.000000000000000000, 1.000000000000000000 ) ) ;
#324 = CARTESIAN_POINT ( 'NONE',  ( 8.700747372918609639E-17, 14.14213562373087640, 10.00000000000001066 ) ) ;
#325 = DIRECTION ( 'NONE',  ( 0.000000000000000000, 0.000000000000000000, 1.000000000000000000 ) ) ;
#326 = PRODUCT_DEFINITION_FORMATION_WITH_SPECIFIED_SOURCE ( 'ANY', '', #245, .NOT_KNOWN. ) ;
#327 = CARTESIAN_POINT ( 'NONE',  ( 14.14213562373104693, -1.818507718094545588E-15, 10.00000000000001066 ) ) ;
#328 = ORGANIZATION ( 'UNSPECIFIED', 'UNSPECIFIED', '' ) ;
#329 = VECTOR ( 'NONE', #263, 1000.000000000000000 ) ;
#330 = DIRECTION ( 'NONE',  ( 1.000000000000000000, 0.000000000000000000, 0.000000000000000000 ) ) ;
#331 = EDGE_CURVE ( 'NONE', #203, #194, #300, .T. ) ;
#332 = CARTESIAN_POINT ( 'NONE',  ( 0.000000000000000000, 0.000000000000000000, 0.000000000000000000 ) ) ;
#333 = PERSON ( 'UNSPECIFIED', 'UNSPECIFIED', 'UNSPECIFIED', ('UNSPECIFIED'), ('UNSPECIFIED'), ('UNSPECIFIED') ) ;
#334 = CC_DESIGN_SECURITY_CLASSIFICATION ( #307, ( #326 ) ) ;
#335 = PERSON_AND_ORGANIZATION_ROLE ( 'design_supplier' ) ;
#336 = LOCAL_TIME ( 9, 43, 12.00000000000000000, #158 ) ;
#337 =( GEOMETRIC_REPRESENTATION_CONTEXT ( 3 ) GLOBAL_UNCERTAINTY_ASSIGNED_CONTEXT ( ( #305 ) ) GLOBAL_UNIT_ASSIGNED_CONTEXT ( ( #229, #84, #225 ) ) REPRESENTATION_CONTEXT ( 'NONE', 'WORKASPACE' ) );
#338 = PERSON_AND_ORGANIZATION ( #333, #328 ) ;
#339 = LINE ( 'NONE', #137, #329 ) ;
#340 = APPROVAL_STATUS ( 'not_yet_approved' ) ;
#341 = PRODUCT_RELATED_PRODUCT_CATEGORY ( 'detail', '', ( #303 ) ) ;
#342 = PERSON_AND_ORGANIZATION ( #333, #328 ) ;
#343 = CALENDAR_DATE ( 2021, 20, 9 ) ;
#344 = VERTEX_POINT ( 'NONE', #224 ) ;
#345 = PERSON_AND_ORGANIZATION_ROLE ( 'classification_officer' ) ;
#346 = DATE_AND_TIME ( #73, #155 ) ;
#347 = APPROVAL_STATUS ( 'not_yet_approved' ) ;
#348 = APPROVAL_STATUS ( 'not_yet_approved' ) ;
#349 = FACE_OUTER_BOUND ( 'NONE', #287, .T. ) ;
#350 = APPROVAL_PERSON_ORGANIZATION ( #68, #126, #101 ) ;
#351 = CALENDAR_DATE ( 2021, 20, 9 ) ;
#352 = PLANE ( 'NONE',  #282 ) ;
#353 = PERSON_AND_ORGANIZATION ( #333, #328 ) ;
#354 = AXIS2_PLACEMENT_3D ( 'NONE', #1, #271, #145 ) ;
#355 = DIRECTION ( 'NONE',  ( 6.429395695523596264E-17, 1.000000000000000000, 0.000000000000000000 ) ) ;
#356 = DATE_AND_TIME ( #232, #37 ) ;
#357 = CC_DESIGN_PERSON_AND_ORGANIZATION_ASSIGNMENT ( #216, #103, ( #245 ) ) ;
#358 = PRODUCT_DEFINITION_SHAPE ( 'NONE', 'NONE',  #360 ) ;
#359 = VERTEX_POINT ( 'NONE', #35 ) ;
#360 = NEXT_ASSEMBLY_USAGE_OCCURRENCE ( 'NAUO1', ' ', ' ', #322, #52, $ ) ;
#361 = NEXT_ASSEMBLY_USAGE_OCCURRENCE ( 'NAUO2', ' ', ' ', #322, #52, $ ) ;
ENDSEC;
END-ISO-10303-21;
