ISO-10303-21;
HEADER;
FILE_DESCRIPTION (( 'STEP AP203' ),
    '1' );
FILE_NAME ('Web Model 12450_12450.step',
    '2019-11-01T14:38:38',
    ( '' ),
    ( '' ),
    'SwSTEP 2.0',
    'SolidWorks 2018',
    '' );
FILE_SCHEMA (( 'CONFIG_CONTROL_DESIGN' ));
ENDSEC;

DATA;
#1 = PERSON_AND_ORGANIZATION ( #25, #4 ) ;
#2 = DATE_TIME_ROLE ( 'classification_date' ) ;
#3 = CC_DESIGN_APPROVAL ( #48, ( #115 ) ) ;
#4 = ORGANIZATION ( 'UNSPECIFIED', 'UNSPECIFIED', '' ) ;
#5 = PLANE ( 'NONE',  #133 ) ;
#6 = PERSON_AND_ORGANIZATION ( #25, #4 ) ;
#7 = VERTEX_POINT ( 'NONE', #82 ) ;
#8 = CC_DESIGN_PERSON_AND_ORGANIZATION_ASSIGNMENT ( #112, #116, ( #118 ) ) ;
#9 =( NAMED_UNIT ( * ) PLANE_ANGLE_UNIT ( ) SI_UNIT ( $, .RADIAN. ) );
#10 = LINE ( 'NONE', #78, #146 ) ;
#11 = EDGE_CURVE ( 'NONE', #79, #7, #117, .T. ) ;
#12 = PERSON_AND_ORGANIZATION_ROLE ( 'design_owner' ) ;
#13 = DATE_AND_TIME ( #56, #49 ) ;
#14 = MANIFOLD_SOLID_BREP ( 'Boss-Extrude1', #63 ) ;
#15 = PERSON_AND_ORGANIZATION ( #25, #4 ) ;
#16 = VECTOR ( 'NONE', #149, 1000.000000000000000 ) ;
#17 = CC_DESIGN_PERSON_AND_ORGANIZATION_ASSIGNMENT ( #64, #62, ( #118 ) ) ;
#18 = DESIGN_CONTEXT ( 'detailed design', #155, 'design' ) ;
#19 = ADVANCED_FACE ( 'NONE', ( #169 ), #5, .F. ) ;
#20 = COORDINATED_UNIVERSAL_TIME_OFFSET ( 5, 0, .BEHIND. ) ;
#21 = DIRECTION ( 'NONE',  ( -1.000000000000000000, -0.0000000000000000000, -0.0000000000000000000 ) ) ;
#22 = PRODUCT_DEFINITION_SHAPE ( 'NONE', 'NONE',  #115 ) ;
#23 = AXIS2_PLACEMENT_3D ( 'NONE', #144, #67, #38 ) ;
#24 = DIRECTION ( 'NONE',  ( -1.000000000000000000, -0.0000000000000000000, -0.0000000000000000000 ) ) ;
#25 = PERSON ( 'UNSPECIFIED', 'UNSPECIFIED', 'UNSPECIFIED', ('UNSPECIFIED'), ('UNSPECIFIED'), ('UNSPECIFIED') ) ;
#26 = CYLINDRICAL_SURFACE ( 'NONE', #125, 5.000000000000000000 ) ;
#27 = UNCERTAINTY_MEASURE_WITH_UNIT (LENGTH_MEASURE( 1.000000000000000082E-05 ), #70, 'distance_accuracy_value', 'NONE');
#28 = ORIENTED_EDGE ( 'NONE', *, *, #11, .F. ) ;
#29 = APPLICATION_PROTOCOL_DEFINITION ( 'international standard', 'config_control_design', 1994, #95 ) ;
#30 = APPLICATION_PROTOCOL_DEFINITION ( 'international standard', 'config_control_design', 1994, #155 ) ;
#31 = ORIENTED_EDGE ( 'NONE', *, *, #171, .T. ) ;
#32 = SECURITY_CLASSIFICATION ( '', '', #129 ) ;
#33 = ORIENTED_EDGE ( 'NONE', *, *, #96, .F. ) ;
#34 = CC_DESIGN_DATE_AND_TIME_ASSIGNMENT ( #98, #175, ( #115 ) ) ;
#35 = ADVANCED_FACE ( 'NONE', ( #126 ), #54, .T. ) ;
#36 = CARTESIAN_POINT ( 'NONE',  ( 0.8000000000000000444, 0.0000000000000000000, 0.0000000000000000000 ) ) ;
#37 = LOCAL_TIME ( 10, 38, 38.00000000000000000, #20 ) ;
#38 = DIRECTION ( 'NONE',  ( 0.0000000000000000000, 0.0000000000000000000, -1.000000000000000000 ) ) ;
#39 = FACE_OUTER_BOUND ( 'NONE', #166, .T. ) ;
#40 = CC_DESIGN_PERSON_AND_ORGANIZATION_ASSIGNMENT ( #15, #47, ( #32 ) ) ;
#41 = CARTESIAN_POINT ( 'NONE',  ( 0.8000000000000000444, 0.0000000000000000000, 0.0000000000000000000 ) ) ;
#42 = APPROVAL_PERSON_ORGANIZATION ( #53, #170, #127 ) ;
#43 = DIRECTION ( 'NONE',  ( 0.0000000000000000000, 0.0000000000000000000, -1.000000000000000000 ) ) ;
#44 = COORDINATED_UNIVERSAL_TIME_OFFSET ( 5, 0, .BEHIND. ) ;
#45 = EDGE_CURVE ( 'NONE', #163, #7, #10, .T. ) ;
#46 = PERSON_AND_ORGANIZATION ( #25, #4 ) ;
#47 = PERSON_AND_ORGANIZATION_ROLE ( 'classification_officer' ) ;
#48 = APPROVAL ( #140, 'UNSPECIFIED' ) ;
#49 = LOCAL_TIME ( 10, 38, 38.00000000000000000, #91 ) ;
#50 = APPROVAL ( #101, 'UNSPECIFIED' ) ;
#51 = DATE_AND_TIME ( #143, #168 ) ;
#52 = DIRECTION ( 'NONE',  ( 0.0000000000000000000, 0.0000000000000000000, 1.000000000000000000 ) ) ;
#53 = PERSON_AND_ORGANIZATION ( #25, #4 ) ;
#54 = CYLINDRICAL_SURFACE ( 'NONE', #148, 5.000000000000000000 ) ;
#55 = DIRECTION ( 'NONE',  ( -1.000000000000000000, -0.0000000000000000000, -0.0000000000000000000 ) ) ;
#56 = CALENDAR_DATE ( 2019, 1, 11 ) ;
#57 = DIRECTION ( 'NONE',  ( 0.0000000000000000000, 0.0000000000000000000, 1.000000000000000000 ) ) ;
#58 = APPROVAL_DATE_TIME ( #51, #170 ) ;
#59 = EDGE_LOOP ( 'NONE', ( #33, #28 ) ) ;
#60 = CC_DESIGN_APPROVAL ( #170, ( #118 ) ) ;
#61 = PERSON_AND_ORGANIZATION ( #25, #4 ) ;
#62 = PERSON_AND_ORGANIZATION_ROLE ( 'design_supplier' ) ;
#63 = CLOSED_SHELL ( 'NONE', ( #90, #35, #142, #19 ) ) ;
#64 = PERSON_AND_ORGANIZATION ( #25, #4 ) ;
#65 = CC_DESIGN_PERSON_AND_ORGANIZATION_ASSIGNMENT ( #61, #165, ( #115 ) ) ;
#66 = DIRECTION ( 'NONE',  ( 1.000000000000000000, 0.0000000000000000000, 0.0000000000000000000 ) ) ;
#67 = DIRECTION ( 'NONE',  ( 1.000000000000000000, 0.0000000000000000000, 0.0000000000000000000 ) ) ;
#68 = FACE_OUTER_BOUND ( 'NONE', #132, .T. ) ;
#69 = AXIS2_PLACEMENT_3D ( 'NONE', #93, #83, #43 ) ;
#70 =( LENGTH_UNIT ( ) NAMED_UNIT ( * ) SI_UNIT ( .MILLI., .METRE. ) );
#71 = DATE_AND_TIME ( #87, #137 ) ;
#72 = EDGE_LOOP ( 'NONE', ( #131, #89, #174, #138 ) ) ;
#73 = DIRECTION ( 'NONE',  ( 1.000000000000000000, 0.0000000000000000000, 0.0000000000000000000 ) ) ;
#74 = ADVANCED_BREP_SHAPE_REPRESENTATION ( 'Web Model 12450_12450', ( #14, #88 ), #158 ) ;
#75 = APPROVAL_ROLE ( '' ) ;
#76 = DATE_AND_TIME ( #121, #159 ) ;
#77 = CC_DESIGN_DATE_AND_TIME_ASSIGNMENT ( #76, #2, ( #32 ) ) ;
#78 = CARTESIAN_POINT ( 'NONE',  ( 0.8000000000000000444, 0.0000000000000000000, 5.000000000000000000 ) ) ;
#79 = VERTEX_POINT ( 'NONE', #147 ) ;
#80 = CARTESIAN_POINT ( 'NONE',  ( -0.8000000000000000444, 0.0000000000000000000, 0.0000000000000000000 ) ) ;
#81 = CC_DESIGN_SECURITY_CLASSIFICATION ( #32, ( #118 ) ) ;
#82 = CARTESIAN_POINT ( 'NONE',  ( -0.8000000000000000444, 0.0000000000000000000, 5.000000000000000000 ) ) ;
#83 = DIRECTION ( 'NONE',  ( 1.000000000000000000, 0.0000000000000000000, 0.0000000000000000000 ) ) ;
#84 = PRODUCT ( 'Web Model 12450_12450', 'Web Model 12450_12450', '', ( #152 ) ) ;
#85 = DIRECTION ( 'NONE',  ( 0.0000000000000000000, 0.0000000000000000000, -1.000000000000000000 ) ) ;
#86 = CIRCLE ( 'NONE', #69, 5.000000000000000000 ) ;
#87 = CALENDAR_DATE ( 2019, 1, 11 ) ;
#88 = AXIS2_PLACEMENT_3D ( 'NONE', #123, #57, #128 ) ;
#89 = ORIENTED_EDGE ( 'NONE', *, *, #167, .F. ) ;
#90 = ADVANCED_FACE ( 'NONE', ( #68 ), #26, .T. ) ;
#91 = COORDINATED_UNIVERSAL_TIME_OFFSET ( 5, 0, .BEHIND. ) ;
#92 = VERTEX_POINT ( 'NONE', #134 ) ;
#93 = CARTESIAN_POINT ( 'NONE',  ( 0.8000000000000000444, 0.0000000000000000000, 0.0000000000000000000 ) ) ;
#94 = ORIENTED_EDGE ( 'NONE', *, *, #11, .T. ) ;
#95 = APPLICATION_CONTEXT ( 'configuration controlled 3d designs of mechanical parts and assemblies' ) ;
#96 = EDGE_CURVE ( 'NONE', #7, #79, #99, .T. ) ;
#97 = APPROVAL_STATUS ( 'not_yet_approved' ) ;
#98 = DATE_AND_TIME ( #114, #37 ) ;
#99 = CIRCLE ( 'NONE', #113, 5.000000000000000000 ) ;
#100 = EDGE_CURVE ( 'NONE', #92, #163, #86, .T. ) ;
#101 = APPROVAL_STATUS ( 'not_yet_approved' ) ;
#102 = CC_DESIGN_APPROVAL ( #50, ( #32 ) ) ;
#103 = ORIENTED_EDGE ( 'NONE', *, *, #100, .F. ) ;
#104 = COORDINATED_UNIVERSAL_TIME_OFFSET ( 5, 0, .BEHIND. ) ;
#105 = DIRECTION ( 'NONE',  ( 0.0000000000000000000, 0.0000000000000000000, 1.000000000000000000 ) ) ;
#106 = DIRECTION ( 'NONE',  ( 0.0000000000000000000, 0.0000000000000000000, -1.000000000000000000 ) ) ;
#107 = CARTESIAN_POINT ( 'NONE',  ( 0.8000000000000000444, 0.0000000000000000000, 0.0000000000000000000 ) ) ;
#108 = APPROVAL_PERSON_ORGANIZATION ( #6, #50, #75 ) ;
#109 = DIRECTION ( 'NONE',  ( 0.0000000000000000000, 0.0000000000000000000, -1.000000000000000000 ) ) ;
#110 =( NAMED_UNIT ( * ) SI_UNIT ( $, .STERADIAN. ) SOLID_ANGLE_UNIT ( ) );
#111 = CARTESIAN_POINT ( 'NONE',  ( 0.8000000000000000444, 6.123233995736766282E-16, -5.000000000000000000 ) ) ;
#112 = PERSON_AND_ORGANIZATION ( #25, #4 ) ;
#113 = AXIS2_PLACEMENT_3D ( 'NONE', #80, #172, #109 ) ;
#114 = CALENDAR_DATE ( 2019, 1, 11 ) ;
#115 = PRODUCT_DEFINITION ( 'UNKNOWN', '', #118, #18 ) ;
#116 = PERSON_AND_ORGANIZATION_ROLE ( 'creator' ) ;
#117 = CIRCLE ( 'NONE', #23, 5.000000000000000000 ) ;
#118 = PRODUCT_DEFINITION_FORMATION_WITH_SPECIFIED_SOURCE ( 'ANY', '', #84, .NOT_KNOWN. ) ;
#119 = APPROVAL_PERSON_ORGANIZATION ( #1, #48, #153 ) ;
#120 = AXIS2_PLACEMENT_3D ( 'NONE', #36, #139, #85 ) ;
#121 = CALENDAR_DATE ( 2019, 1, 11 ) ;
#122 = APPROVAL_DATE_TIME ( #13, #50 ) ;
#123 = CARTESIAN_POINT ( 'NONE',  ( 0.0000000000000000000, 0.0000000000000000000, 0.0000000000000000000 ) ) ;
#124 = ORIENTED_EDGE ( 'NONE', *, *, #45, .F. ) ;
#125 = AXIS2_PLACEMENT_3D ( 'NONE', #173, #24, #52 ) ;
#126 = FACE_OUTER_BOUND ( 'NONE', #72, .T. ) ;
#127 = APPROVAL_ROLE ( '' ) ;
#128 = DIRECTION ( 'NONE',  ( 1.000000000000000000, 0.0000000000000000000, 0.0000000000000000000 ) ) ;
#129 = SECURITY_CLASSIFICATION_LEVEL ( 'unclassified' ) ;
#130 = COORDINATED_UNIVERSAL_TIME_OFFSET ( 5, 0, .BEHIND. ) ;
#131 = ORIENTED_EDGE ( 'NONE', *, *, #171, .F. ) ;
#132 = EDGE_LOOP ( 'NONE', ( #103, #31, #94, #124 ) ) ;
#133 = AXIS2_PLACEMENT_3D ( 'NONE', #162, #66, #106 ) ;
#134 = CARTESIAN_POINT ( 'NONE',  ( 0.8000000000000000444, 6.123233995736766282E-16, -5.000000000000000000 ) ) ;
#135 = LINE ( 'NONE', #111, #16 ) ;
#136 = DIRECTION ( 'NONE',  ( 0.0000000000000000000, 0.0000000000000000000, -1.000000000000000000 ) ) ;
#137 = LOCAL_TIME ( 10, 38, 38.00000000000000000, #44 ) ;
#138 = ORIENTED_EDGE ( 'NONE', *, *, #96, .T. ) ;
#139 = DIRECTION ( 'NONE',  ( 1.000000000000000000, 0.0000000000000000000, 0.0000000000000000000 ) ) ;
#140 = APPROVAL_STATUS ( 'not_yet_approved' ) ;
#141 = CIRCLE ( 'NONE', #161, 5.000000000000000000 ) ;
#142 = ADVANCED_FACE ( 'NONE', ( #39 ), #160, .T. ) ;
#143 = CALENDAR_DATE ( 2019, 1, 11 ) ;
#144 = CARTESIAN_POINT ( 'NONE',  ( -0.8000000000000000444, 0.0000000000000000000, 0.0000000000000000000 ) ) ;
#145 = APPROVAL_DATE_TIME ( #71, #48 ) ;
#146 = VECTOR ( 'NONE', #55, 1000.000000000000000 ) ;
#147 = CARTESIAN_POINT ( 'NONE',  ( -0.8000000000000000444, 6.123233995736766282E-16, -5.000000000000000000 ) ) ;
#148 = AXIS2_PLACEMENT_3D ( 'NONE', #107, #21, #105 ) ;
#149 = DIRECTION ( 'NONE',  ( -1.000000000000000000, -0.0000000000000000000, -0.0000000000000000000 ) ) ;
#150 = SHAPE_DEFINITION_REPRESENTATION ( #22, #74 ) ;
#151 = ORIENTED_EDGE ( 'NONE', *, *, #167, .T. ) ;
#152 = MECHANICAL_CONTEXT ( 'NONE', #95, 'mechanical' ) ;
#153 = APPROVAL_ROLE ( '' ) ;
#154 = CC_DESIGN_PERSON_AND_ORGANIZATION_ASSIGNMENT ( #46, #12, ( #84 ) ) ;
#155 = APPLICATION_CONTEXT ( 'configuration controlled 3d designs of mechanical parts and assemblies' ) ;
#156 = PRODUCT_RELATED_PRODUCT_CATEGORY ( 'detail', '', ( #84 ) ) ;
#157 = ORIENTED_EDGE ( 'NONE', *, *, #100, .T. ) ;
#158 =( GEOMETRIC_REPRESENTATION_CONTEXT ( 3 ) GLOBAL_UNCERTAINTY_ASSIGNED_CONTEXT ( ( #27 ) ) GLOBAL_UNIT_ASSIGNED_CONTEXT ( ( #70, #9, #110 ) ) REPRESENTATION_CONTEXT ( 'NONE', 'WORKASPACE' ) );
#159 = LOCAL_TIME ( 10, 38, 38.00000000000000000, #104 ) ;
#160 = PLANE ( 'NONE',  #120 ) ;
#161 = AXIS2_PLACEMENT_3D ( 'NONE', #41, #73, #136 ) ;
#162 = CARTESIAN_POINT ( 'NONE',  ( -0.8000000000000000444, 0.0000000000000000000, 0.0000000000000000000 ) ) ;
#163 = VERTEX_POINT ( 'NONE', #164 ) ;
#164 = CARTESIAN_POINT ( 'NONE',  ( 0.8000000000000000444, 0.0000000000000000000, 5.000000000000000000 ) ) ;
#165 = PERSON_AND_ORGANIZATION_ROLE ( 'creator' ) ;
#166 = EDGE_LOOP ( 'NONE', ( #151, #157 ) ) ;
#167 = EDGE_CURVE ( 'NONE', #163, #92, #141, .T. ) ;
#168 = LOCAL_TIME ( 10, 38, 38.00000000000000000, #130 ) ;
#169 = FACE_OUTER_BOUND ( 'NONE', #59, .T. ) ;
#170 = APPROVAL ( #97, 'UNSPECIFIED' ) ;
#171 = EDGE_CURVE ( 'NONE', #92, #79, #135, .T. ) ;
#172 = DIRECTION ( 'NONE',  ( 1.000000000000000000, 0.0000000000000000000, 0.0000000000000000000 ) ) ;
#173 = CARTESIAN_POINT ( 'NONE',  ( 0.8000000000000000444, 0.0000000000000000000, 0.0000000000000000000 ) ) ;
#174 = ORIENTED_EDGE ( 'NONE', *, *, #45, .T. ) ;
#175 = DATE_TIME_ROLE ( 'creation_date' ) ;
ENDSEC;
END-ISO-10303-21;
