ISO-10303-21;
HEADER;
FILE_DESCRIPTION (( 'STEP AP203' ),
    '1' );
FILE_NAME ('Web Model 47020_47611.step',
    '2018-03-15T18:35:20',
    ( '' ),
    ( '' ),
    'SwSTEP 2.0',
    'SolidWorks 2016',
    '' );
FILE_SCHEMA (( 'CONFIG_CONTROL_DESIGN' ));
ENDSEC;

DATA;
#1 = CARTESIAN_POINT ( 'NONE',  ( 0.7500000000000000000, 6.349999999999997900, 6.349999999999999600 ) ) ;
#2 = CALENDAR_DATE ( 2018, 15, 3 ) ;
#3 = ADVANCED_FACE ( 'NONE', ( #34 ), #94, .F. ) ;
#4 = DIRECTION ( 'NONE',  ( 1.000000000000000000, 0.0000000000000000000, 0.0000000000000000000 ) ) ;
#5 = PERSON_AND_ORGANIZATION ( #55, #172 ) ;
#6 = EDGE_CURVE ( 'NONE', #65, #223, #37, .T. ) ;
#7 = CARTESIAN_POINT ( 'NONE',  ( -0.7500000000000000000, 6.349999999999997900, 6.349999999999999600 ) ) ;
#8 = APPROVAL_PERSON_ORGANIZATION ( #138, #90, #120 ) ;
#9 = COORDINATED_UNIVERSAL_TIME_OFFSET ( 5, 0, .BEHIND. ) ;
#10 = CC_DESIGN_APPROVAL ( #136, ( #78 ) ) ;
#11 = ORIENTED_EDGE ( 'NONE', *, *, #147, .T. ) ;
#12 = ORIENTED_EDGE ( 'NONE', *, *, #169, .F. ) ;
#13 = PRODUCT_DEFINITION ( 'UNKNOWN', '', #78, #183 ) ;
#14 = DATE_AND_TIME ( #68, #130 ) ;
#15 = PERSON_AND_ORGANIZATION ( #55, #172 ) ;
#16 = ADVANCED_FACE ( 'NONE', ( #134 ), #52, .F. ) ;
#17 = SECURITY_CLASSIFICATION ( '', '', #121 ) ;
#18 = DIRECTION ( 'NONE',  ( 0.0000000000000000000, 0.0000000000000000000, -1.000000000000000000 ) ) ;
#19 = ORIENTED_EDGE ( 'NONE', *, *, #147, .F. ) ;
#20 =( GEOMETRIC_REPRESENTATION_CONTEXT ( 3 ) GLOBAL_UNCERTAINTY_ASSIGNED_CONTEXT ( ( #141 ) ) GLOBAL_UNIT_ASSIGNED_CONTEXT ( ( #216, #217, #84 ) ) REPRESENTATION_CONTEXT ( 'NONE', 'WORKASPACE' ) );
#21 = CARTESIAN_POINT ( 'NONE',  ( 0.7500000000000000000, -6.350000000000001400, -6.350000000000002300 ) ) ;
#22 = FACE_OUTER_BOUND ( 'NONE', #205, .T. ) ;
#23 = CC_DESIGN_DATE_AND_TIME_ASSIGNMENT ( #201, #186, ( #17 ) ) ;
#24 = DIRECTION ( 'NONE',  ( -1.000000000000000000, -0.0000000000000000000, -0.0000000000000000000 ) ) ;
#25 = ORIENTED_EDGE ( 'NONE', *, *, #6, .F. ) ;
#26 = CC_DESIGN_PERSON_AND_ORGANIZATION_ASSIGNMENT ( #151, #28, ( #13 ) ) ;
#27 = EDGE_LOOP ( 'NONE', ( #76, #25, #200, #162 ) ) ;
#28 = PERSON_AND_ORGANIZATION_ROLE ( 'creator' ) ;
#29 = APPROVAL_STATUS ( 'not_yet_approved' ) ;
#30 = COORDINATED_UNIVERSAL_TIME_OFFSET ( 5, 0, .BEHIND. ) ;
#31 = SHAPE_DEFINITION_REPRESENTATION ( #203, #70 ) ;
#32 = EDGE_CURVE ( 'NONE', #65, #88, #153, .T. ) ;
#33 = CARTESIAN_POINT ( 'NONE',  ( -0.7500000000000000000, 0.0000000000000000000, 0.0000000000000000000 ) ) ;
#34 = FACE_OUTER_BOUND ( 'NONE', #184, .T. ) ;
#35 = EDGE_CURVE ( 'NONE', #88, #145, #122, .T. ) ;
#36 = LINE ( 'NONE', #99, #174 ) ;
#37 = LINE ( 'NONE', #132, #232 ) ;
#38 = ADVANCED_FACE ( 'NONE', ( #22 ), #133, .F. ) ;
#39 = DIRECTION ( 'NONE',  ( 0.0000000000000000000, 0.0000000000000000000, -1.000000000000000000 ) ) ;
#40 = CARTESIAN_POINT ( 'NONE',  ( -0.7500000000000000000, -6.350000000000001400, 6.350000000000002300 ) ) ;
#41 = DIRECTION ( 'NONE',  ( 0.0000000000000000000, -1.000000000000000000, 2.048885995248197400E-016 ) ) ;
#42 = DIRECTION ( 'NONE',  ( -1.000000000000000000, -0.0000000000000000000, -0.0000000000000000000 ) ) ;
#43 = CARTESIAN_POINT ( 'NONE',  ( -0.7500000000000000000, 6.349999999999997900, -6.349999999999999600 ) ) ;
#44 = DIRECTION ( 'NONE',  ( 0.0000000000000000000, 0.0000000000000000000, 1.000000000000000000 ) ) ;
#45 = EDGE_CURVE ( 'NONE', #88, #191, #36, .T. ) ;
#46 = APPROVAL_STATUS ( 'not_yet_approved' ) ;
#47 = DATE_TIME_ROLE ( 'creation_date' ) ;
#48 = ORIENTED_EDGE ( 'NONE', *, *, #32, .F. ) ;
#49 = VECTOR ( 'NONE', #98, 1000.000000000000000 ) ;
#50 = VERTEX_POINT ( 'NONE', #195 ) ;
#51 = CC_DESIGN_PERSON_AND_ORGANIZATION_ASSIGNMENT ( #164, #202, ( #78 ) ) ;
#52 = PLANE ( 'NONE',  #156 ) ;
#53 = VECTOR ( 'NONE', #60, 1000.000000000000000 ) ;
#54 = PERSON_AND_ORGANIZATION ( #55, #172 ) ;
#55 = PERSON ( 'UNSPECIFIED', 'UNSPECIFIED', 'UNSPECIFIED', ('UNSPECIFIED'), ('UNSPECIFIED'), ('UNSPECIFIED') ) ;
#56 = DATE_AND_TIME ( #2, #236 ) ;
#57 = CC_DESIGN_PERSON_AND_ORGANIZATION_ASSIGNMENT ( #112, #220, ( #128 ) ) ;
#58 = CLOSED_SHELL ( 'NONE', ( #16, #155, #38, #158, #75, #3 ) ) ;
#59 = CARTESIAN_POINT ( 'NONE',  ( 0.7500000000000000000, 6.349999999999997900, -6.349999999999999600 ) ) ;
#60 = DIRECTION ( 'NONE',  ( -0.0000000000000000000, -0.0000000000000000000, 1.000000000000000000 ) ) ;
#61 = VECTOR ( 'NONE', #41, 1000.000000000000000 ) ;
#62 = DIRECTION ( 'NONE',  ( 1.000000000000000000, 0.0000000000000000000, 0.0000000000000000000 ) ) ;
#63 = EDGE_CURVE ( 'NONE', #237, #50, #108, .T. ) ;
#64 = DIRECTION ( 'NONE',  ( -0.0000000000000000000, 1.000000000000000000, 0.0000000000000000000 ) ) ;
#65 = VERTEX_POINT ( 'NONE', #21 ) ;
#66 = APPROVAL_PERSON_ORGANIZATION ( #54, #136, #234 ) ;
#67 = PERSON_AND_ORGANIZATION_ROLE ( 'design_supplier' ) ;
#68 = CALENDAR_DATE ( 2018, 15, 3 ) ;
#69 = VECTOR ( 'NONE', #42, 1000.000000000000000 ) ;
#70 = ADVANCED_BREP_SHAPE_REPRESENTATION ( 'Web Model 47020_47611', ( #189, #173 ), #20 ) ;
#71 = VERTEX_POINT ( 'NONE', #157 ) ;
#72 = LINE ( 'NONE', #227, #69 ) ;
#73 = APPROVAL_DATE_TIME ( #14, #136 ) ;
#74 = VECTOR ( 'NONE', #197, 1000.000000000000000 ) ;
#75 = ADVANCED_FACE ( 'NONE', ( #115 ), #228, .T. ) ;
#76 = ORIENTED_EDGE ( 'NONE', *, *, #87, .T. ) ;
#77 = CARTESIAN_POINT ( 'NONE',  ( -0.7500000000000000000, 6.349999999999997900, 6.349999999999999600 ) ) ;
#78 = PRODUCT_DEFINITION_FORMATION_WITH_SPECIFIED_SOURCE ( 'ANY', '', #128, .NOT_KNOWN. ) ;
#79 = DIRECTION ( 'NONE',  ( -0.0000000000000000000, 1.000000000000000000, 2.048885995248197400E-016 ) ) ;
#80 = ORIENTED_EDGE ( 'NONE', *, *, #35, .F. ) ;
#81 = LOCAL_TIME ( 14, 35, 20.00000000000000000, #190 ) ;
#82 = CARTESIAN_POINT ( 'NONE',  ( 0.7500000000000000000, 6.349999999999997900, -6.349999999999999600 ) ) ;
#83 = LINE ( 'NONE', #181, #206 ) ;
#84 =( NAMED_UNIT ( * ) SI_UNIT ( $, .STERADIAN. ) SOLID_ANGLE_UNIT ( ) );
#85 = DIRECTION ( 'NONE',  ( 0.0000000000000000000, -1.000000000000000000, 0.0000000000000000000 ) ) ;
#86 = CARTESIAN_POINT ( 'NONE',  ( 0.7500000000000000000, -6.350000000000001400, 6.350000000000002300 ) ) ;
#87 = EDGE_CURVE ( 'NONE', #50, #223, #210, .T. ) ;
#88 = VERTEX_POINT ( 'NONE', #159 ) ;
#89 = PERSON_AND_ORGANIZATION ( #55, #172 ) ;
#90 = APPROVAL ( #46, 'UNSPECIFIED' ) ;
#91 = ORIENTED_EDGE ( 'NONE', *, *, #131, .F. ) ;
#92 = DATE_AND_TIME ( #101, #142 ) ;
#93 = AXIS2_PLACEMENT_3D ( 'NONE', #82, #111, #193 ) ;
#94 = PLANE ( 'NONE',  #103 ) ;
#95 = ORIENTED_EDGE ( 'NONE', *, *, #35, .T. ) ;
#96 = CARTESIAN_POINT ( 'NONE',  ( -0.7500000000000000000, 6.349999999999997900, 6.349999999999999600 ) ) ;
#97 = CC_DESIGN_PERSON_AND_ORGANIZATION_ASSIGNMENT ( #5, #123, ( #17 ) ) ;
#98 = DIRECTION ( 'NONE',  ( -0.0000000000000000000, -0.0000000000000000000, 1.000000000000000000 ) ) ;
#99 = CARTESIAN_POINT ( 'NONE',  ( 0.7500000000000000000, 6.349999999999997900, -6.349999999999999600 ) ) ;
#100 = ORIENTED_EDGE ( 'NONE', *, *, #45, .F. ) ;
#101 = CALENDAR_DATE ( 2018, 15, 3 ) ;
#102 = PRODUCT_RELATED_PRODUCT_CATEGORY ( 'detail', '', ( #128 ) ) ;
#103 = AXIS2_PLACEMENT_3D ( 'NONE', #33, #225, #109 ) ;
#104 = DIRECTION ( 'NONE',  ( 0.0000000000000000000, -0.0000000000000000000, -1.000000000000000000 ) ) ;
#105 = APPLICATION_PROTOCOL_DEFINITION ( 'international standard', 'config_control_design', 1994, #146 ) ;
#106 = ORIENTED_EDGE ( 'NONE', *, *, #6, .T. ) ;
#107 = VECTOR ( 'NONE', #39, 1000.000000000000000 ) ;
#108 = LINE ( 'NONE', #77, #61 ) ;
#109 = DIRECTION ( 'NONE',  ( 0.0000000000000000000, 0.0000000000000000000, -1.000000000000000000 ) ) ;
#110 = ORIENTED_EDGE ( 'NONE', *, *, #131, .T. ) ;
#111 = DIRECTION ( 'NONE',  ( 0.0000000000000000000, -2.048885995248197400E-016, 1.000000000000000000 ) ) ;
#112 = PERSON_AND_ORGANIZATION ( #55, #172 ) ;
#113 = DIRECTION ( 'NONE',  ( -1.000000000000000000, -0.0000000000000000000, -0.0000000000000000000 ) ) ;
#114 = DIRECTION ( 'NONE',  ( 0.0000000000000000000, -0.0000000000000000000, 1.000000000000000000 ) ) ;
#115 = FACE_OUTER_BOUND ( 'NONE', #221, .T. ) ;
#116 = PLANE ( 'NONE',  #219 ) ;
#117 = CARTESIAN_POINT ( 'NONE',  ( 0.7500000000000000000, 6.349999999999997900, 6.349999999999999600 ) ) ;
#118 = ORIENTED_EDGE ( 'NONE', *, *, #169, .T. ) ;
#119 = LINE ( 'NONE', #96, #49 ) ;
#120 = APPROVAL_ROLE ( '' ) ;
#121 = SECURITY_CLASSIFICATION_LEVEL ( 'unclassified' ) ;
#122 = LINE ( 'NONE', #1, #53 ) ;
#123 = PERSON_AND_ORGANIZATION_ROLE ( 'classification_officer' ) ;
#124 = FACE_OUTER_BOUND ( 'NONE', #149, .T. ) ;
#125 = EDGE_CURVE ( 'NONE', #71, #65, #143, .T. ) ;
#126 = ORIENTED_EDGE ( 'NONE', *, *, #144, .F. ) ;
#127 = LINE ( 'NONE', #212, #179 ) ;
#128 = PRODUCT ( 'Web Model 47020_47611', 'Web Model 47020_47611', '', ( #187 ) ) ;
#129 = ORIENTED_EDGE ( 'NONE', *, *, #125, .T. ) ;
#130 = LOCAL_TIME ( 14, 35, 20.00000000000000000, #214 ) ;
#131 = EDGE_CURVE ( 'NONE', #223, #191, #127, .T. ) ;
#132 = CARTESIAN_POINT ( 'NONE',  ( 0.7500000000000000000, -6.350000000000001400, -6.350000000000002300 ) ) ;
#133 = PLANE ( 'NONE',  #93 ) ;
#134 = FACE_OUTER_BOUND ( 'NONE', #176, .T. ) ;
#135 = CARTESIAN_POINT ( 'NONE',  ( 0.7500000000000000000, 6.349999999999997900, 6.349999999999999600 ) ) ;
#136 = APPROVAL ( #29, 'UNSPECIFIED' ) ;
#137 = ORIENTED_EDGE ( 'NONE', *, *, #63, .T. ) ;
#138 = PERSON_AND_ORGANIZATION ( #55, #172 ) ;
#139 = DIRECTION ( 'NONE',  ( -1.000000000000000000, -0.0000000000000000000, -0.0000000000000000000 ) ) ;
#140 = ORIENTED_EDGE ( 'NONE', *, *, #32, .T. ) ;
#141 = UNCERTAINTY_MEASURE_WITH_UNIT (LENGTH_MEASURE( 1.000000000000000100E-005 ), #216, 'distance_accuracy_value', 'NONE');
#142 = LOCAL_TIME ( 14, 35, 20.00000000000000000, #30 ) ;
#143 = LINE ( 'NONE', #178, #107 ) ;
#144 = EDGE_CURVE ( 'NONE', #191, #237, #119, .T. ) ;
#145 = VERTEX_POINT ( 'NONE', #135 ) ;
#146 = APPLICATION_CONTEXT ( 'configuration controlled 3d designs of mechanical parts and assemblies' ) ;
#147 = EDGE_CURVE ( 'NONE', #145, #237, #72, .T. ) ;
#148 = ORIENTED_EDGE ( 'NONE', *, *, #87, .F. ) ;
#149 = EDGE_LOOP ( 'NONE', ( #198, #19, #80, #154 ) ) ;
#150 = LOCAL_TIME ( 14, 35, 20.00000000000000000, #222 ) ;
#151 = PERSON_AND_ORGANIZATION ( #55, #172 ) ;
#152 = EDGE_CURVE ( 'NONE', #71, #50, #83, .T. ) ;
#153 = LINE ( 'NONE', #59, #204 ) ;
#154 = ORIENTED_EDGE ( 'NONE', *, *, #45, .T. ) ;
#155 = ADVANCED_FACE ( 'NONE', ( #226 ), #167, .F. ) ;
#156 = AXIS2_PLACEMENT_3D ( 'NONE', #209, #229, #231 ) ;
#157 = CARTESIAN_POINT ( 'NONE',  ( 0.7500000000000000000, -6.350000000000001400, 6.350000000000002300 ) ) ;
#158 = ADVANCED_FACE ( 'NONE', ( #124 ), #116, .F. ) ;
#159 = CARTESIAN_POINT ( 'NONE',  ( 0.7500000000000000000, 6.349999999999997900, -6.349999999999999600 ) ) ;
#160 = AXIS2_PLACEMENT_3D ( 'NONE', #215, #4, #194 ) ;
#161 = CARTESIAN_POINT ( 'NONE',  ( -0.7500000000000000000, -6.350000000000001400, -6.350000000000002300 ) ) ;
#162 = ORIENTED_EDGE ( 'NONE', *, *, #152, .T. ) ;
#163 = VECTOR ( 'NONE', #18, 1000.000000000000000 ) ;
#164 = PERSON_AND_ORGANIZATION ( #55, #172 ) ;
#165 = CARTESIAN_POINT ( 'NONE',  ( 0.7500000000000000000, 6.349999999999997900, 6.349999999999999600 ) ) ;
#166 = CARTESIAN_POINT ( 'NONE',  ( 0.0000000000000000000, 0.0000000000000000000, 0.0000000000000000000 ) ) ;
#167 = PLANE ( 'NONE',  #171 ) ;
#168 = APPROVAL_ROLE ( '' ) ;
#169 = EDGE_CURVE ( 'NONE', #145, #71, #218, .T. ) ;
#170 = CC_DESIGN_APPROVAL ( #90, ( #17 ) ) ;
#171 = AXIS2_PLACEMENT_3D ( 'NONE', #86, #64, #114 ) ;
#172 = ORGANIZATION ( 'UNSPECIFIED', 'UNSPECIFIED', '' ) ;
#173 = AXIS2_PLACEMENT_3D ( 'NONE', #166, #44, #62 ) ;
#174 = VECTOR ( 'NONE', #139, 1000.000000000000000 ) ;
#175 = CALENDAR_DATE ( 2018, 15, 3 ) ;
#176 = EDGE_LOOP ( 'NONE', ( #137, #208, #12, #11 ) ) ;
#177 = APPROVAL_DATE_TIME ( #185, #90 ) ;
#178 = CARTESIAN_POINT ( 'NONE',  ( 0.7500000000000000000, -6.350000000000001400, 6.350000000000002300 ) ) ;
#179 = VECTOR ( 'NONE', #213, 1000.000000000000000 ) ;
#180 = CALENDAR_DATE ( 2018, 15, 3 ) ;
#181 = CARTESIAN_POINT ( 'NONE',  ( 0.7500000000000000000, -6.350000000000001400, 6.350000000000002300 ) ) ;
#182 = APPROVAL_STATUS ( 'not_yet_approved' ) ;
#183 = DESIGN_CONTEXT ( 'detailed design', #146, 'design' ) ;
#184 = EDGE_LOOP ( 'NONE', ( #235, #126, #91, #148 ) ) ;
#185 = DATE_AND_TIME ( #180, #150 ) ;
#186 = DATE_TIME_ROLE ( 'classification_date' ) ;
#187 = MECHANICAL_CONTEXT ( 'NONE', #199, 'mechanical' ) ;
#188 = CC_DESIGN_PERSON_AND_ORGANIZATION_ASSIGNMENT ( #89, #67, ( #78 ) ) ;
#189 = MANIFOLD_SOLID_BREP ( 'Boss-Extrude1', #58 ) ;
#190 = COORDINATED_UNIVERSAL_TIME_OFFSET ( 5, 0, .BEHIND. ) ;
#191 = VERTEX_POINT ( 'NONE', #43 ) ;
#192 = APPROVAL_DATE_TIME ( #56, #196 ) ;
#193 = DIRECTION ( 'NONE',  ( 0.0000000000000000000, -1.000000000000000000, -2.048885995248197400E-016 ) ) ;
#194 = DIRECTION ( 'NONE',  ( 0.0000000000000000000, 0.0000000000000000000, -1.000000000000000000 ) ) ;
#195 = CARTESIAN_POINT ( 'NONE',  ( -0.7500000000000000000, -6.350000000000001400, 6.350000000000002300 ) ) ;
#196 = APPROVAL ( #182, 'UNSPECIFIED' ) ;
#197 = DIRECTION ( 'NONE',  ( 0.0000000000000000000, -1.000000000000000000, 2.048885995248197400E-016 ) ) ;
#198 = ORIENTED_EDGE ( 'NONE', *, *, #144, .T. ) ;
#199 = APPLICATION_CONTEXT ( 'configuration controlled 3d designs of mechanical parts and assemblies' ) ;
#200 = ORIENTED_EDGE ( 'NONE', *, *, #125, .F. ) ;
#201 = DATE_AND_TIME ( #175, #81 ) ;
#202 = PERSON_AND_ORGANIZATION_ROLE ( 'creator' ) ;
#203 = PRODUCT_DEFINITION_SHAPE ( 'NONE', 'NONE',  #13 ) ;
#204 = VECTOR ( 'NONE', #79, 1000.000000000000000 ) ;
#205 = EDGE_LOOP ( 'NONE', ( #110, #100, #48, #106 ) ) ;
#206 = VECTOR ( 'NONE', #24, 1000.000000000000000 ) ;
#207 = CC_DESIGN_SECURITY_CLASSIFICATION ( #17, ( #78 ) ) ;
#208 = ORIENTED_EDGE ( 'NONE', *, *, #152, .F. ) ;
#209 = CARTESIAN_POINT ( 'NONE',  ( 0.7500000000000000000, 6.349999999999997900, 6.349999999999999600 ) ) ;
#210 = LINE ( 'NONE', #40, #163 ) ;
#211 = APPROVAL_PERSON_ORGANIZATION ( #15, #196, #168 ) ;
#212 = CARTESIAN_POINT ( 'NONE',  ( -0.7500000000000000000, 6.349999999999997900, -6.349999999999999600 ) ) ;
#213 = DIRECTION ( 'NONE',  ( -0.0000000000000000000, 1.000000000000000000, 2.048885995248197400E-016 ) ) ;
#214 = COORDINATED_UNIVERSAL_TIME_OFFSET ( 5, 0, .BEHIND. ) ;
#215 = CARTESIAN_POINT ( 'NONE',  ( 0.7500000000000000000, 0.0000000000000000000, 0.0000000000000000000 ) ) ;
#216 =( LENGTH_UNIT ( ) NAMED_UNIT ( * ) SI_UNIT ( .MILLI., .METRE. ) );
#217 =( NAMED_UNIT ( * ) PLANE_ANGLE_UNIT ( ) SI_UNIT ( $, .RADIAN. ) );
#218 = LINE ( 'NONE', #165, #74 ) ;
#219 = AXIS2_PLACEMENT_3D ( 'NONE', #117, #85, #104 ) ;
#220 = PERSON_AND_ORGANIZATION_ROLE ( 'design_owner' ) ;
#221 = EDGE_LOOP ( 'NONE', ( #118, #129, #140, #95 ) ) ;
#222 = COORDINATED_UNIVERSAL_TIME_OFFSET ( 5, 0, .BEHIND. ) ;
#223 = VERTEX_POINT ( 'NONE', #161 ) ;
#224 = CC_DESIGN_APPROVAL ( #196, ( #13 ) ) ;
#225 = DIRECTION ( 'NONE',  ( 1.000000000000000000, 0.0000000000000000000, 0.0000000000000000000 ) ) ;
#226 = FACE_OUTER_BOUND ( 'NONE', #27, .T. ) ;
#227 = CARTESIAN_POINT ( 'NONE',  ( 0.7500000000000000000, 6.349999999999997900, 6.349999999999999600 ) ) ;
#228 = PLANE ( 'NONE',  #160 ) ;
#229 = DIRECTION ( 'NONE',  ( 0.0000000000000000000, -2.048885995248197400E-016, -1.000000000000000000 ) ) ;
#230 = CC_DESIGN_DATE_AND_TIME_ASSIGNMENT ( #92, #47, ( #13 ) ) ;
#231 = DIRECTION ( 'NONE',  ( 0.0000000000000000000, 1.000000000000000000, -2.048885995248197400E-016 ) ) ;
#232 = VECTOR ( 'NONE', #113, 1000.000000000000000 ) ;
#233 = APPLICATION_PROTOCOL_DEFINITION ( 'international standard', 'config_control_design', 1994, #199 ) ;
#234 = APPROVAL_ROLE ( '' ) ;
#235 = ORIENTED_EDGE ( 'NONE', *, *, #63, .F. ) ;
#236 = LOCAL_TIME ( 14, 35, 20.00000000000000000, #9 ) ;
#237 = VERTEX_POINT ( 'NONE', #7 ) ;
ENDSEC;
END-ISO-10303-21;
