ISO-10303-21;
HEADER;
FILE_DESCRIPTION (( 'STEP AP203' ),
    '1' );
FILE_NAME ('Web Model 84491.STEP',
    '2017-02-01T15:51:24',
    ( '' ),
    ( '' ),
    'SwSTEP 2.0',
    'SolidWorks 2016',
    '' );
FILE_SCHEMA (( 'CONFIG_CONTROL_DESIGN' ));
ENDSEC;

DATA;
#1 = PERSON_AND_ORGANIZATION ( #32, #7 ) ;
#2 = APPROVAL_PERSON_ORGANIZATION ( #88, #40, #86 ) ;
#3 = PERSON_AND_ORGANIZATION ( #32, #7 ) ;
#4 = VERTEX_POINT ( 'NONE', #138 ) ;
#5 = CARTESIAN_POINT ( 'NONE',  ( 0.0000000000000000000, 0.0000000000000000000, 0.0000000000000000000 ) ) ;
#6 = CARTESIAN_POINT ( 'NONE',  ( 25.00000000000000000, 3.061616997868383000E-015, 4.000000000000000000 ) ) ;
#7 = ORGANIZATION ( 'UNSPECIFIED', 'UNSPECIFIED', '' ) ;
#8 =( LENGTH_UNIT ( ) NAMED_UNIT ( * ) SI_UNIT ( .MILLI., .METRE. ) );
#9 = DIRECTION ( 'NONE',  ( 0.0000000000000000000, 0.0000000000000000000, 1.000000000000000000 ) ) ;
#10 = DIRECTION ( 'NONE',  ( 1.000000000000000000, 0.0000000000000000000, -0.0000000000000000000 ) ) ;
#11 = APPROVAL ( #20, 'UNSPECIFIED' ) ;
#12 = CIRCLE ( 'NONE', #112, 25.00000000000000000 ) ;
#13 = LOCAL_TIME ( 10, 51, 24.00000000000000000, #36 ) ;
#14 = PERSON_AND_ORGANIZATION ( #32, #7 ) ;
#15 = ORIENTED_EDGE ( 'NONE', *, *, #78, .F. ) ;
#16 = ADVANCED_FACE ( 'NONE', ( #147 ), #122, .F. ) ;
#17 = CARTESIAN_POINT ( 'NONE',  ( 0.0000000000000000000, 0.0000000000000000000, 0.0000000000000000000 ) ) ;
#18 = ORIENTED_EDGE ( 'NONE', *, *, #92, .F. ) ;
#19 = DIRECTION ( 'NONE',  ( -0.0000000000000000000, -0.0000000000000000000, -1.000000000000000000 ) ) ;
#20 = APPROVAL_STATUS ( 'not_yet_approved' ) ;
#21 = DIRECTION ( 'NONE',  ( 1.000000000000000000, 0.0000000000000000000, 0.0000000000000000000 ) ) ;
#22 = CYLINDRICAL_SURFACE ( 'NONE', #174, 25.00000000000000000 ) ;
#23 = CLOSED_SHELL ( 'NONE', ( #84, #142, #26, #16 ) ) ;
#24 = PRODUCT ( 'Web Model 84491', 'Web Model 84491', '', ( #151 ) ) ;
#25 = FACE_OUTER_BOUND ( 'NONE', #144, .T. ) ;
#26 = ADVANCED_FACE ( 'NONE', ( #25 ), #90, .T. ) ;
#27 = VECTOR ( 'NONE', #37, 1000.000000000000000 ) ;
#28 = CARTESIAN_POINT ( 'NONE',  ( 0.0000000000000000000, 0.0000000000000000000, 4.000000000000000000 ) ) ;
#29 = DATE_TIME_ROLE ( 'creation_date' ) ;
#30 = DIRECTION ( 'NONE',  ( 0.0000000000000000000, 0.0000000000000000000, 1.000000000000000000 ) ) ;
#31 = DIRECTION ( 'NONE',  ( 1.000000000000000000, 0.0000000000000000000, 0.0000000000000000000 ) ) ;
#32 = PERSON ( 'UNSPECIFIED', 'UNSPECIFIED', 'UNSPECIFIED', ('UNSPECIFIED'), ('UNSPECIFIED'), ('UNSPECIFIED') ) ;
#33 = CIRCLE ( 'NONE', #82, 25.00000000000000000 ) ;
#34 = COORDINATED_UNIVERSAL_TIME_OFFSET ( 5, 0, .BEHIND. ) ;
#35 = APPROVAL_PERSON_ORGANIZATION ( #3, #101, #106 ) ;
#36 = COORDINATED_UNIVERSAL_TIME_OFFSET ( 5, 0, .BEHIND. ) ;
#37 = DIRECTION ( 'NONE',  ( -0.0000000000000000000, -0.0000000000000000000, -1.000000000000000000 ) ) ;
#38 = SECURITY_CLASSIFICATION_LEVEL ( 'unclassified' ) ;
#39 = APPLICATION_CONTEXT ( 'configuration controlled 3d designs of mechanical parts and assemblies' ) ;
#40 = APPROVAL ( #168, 'UNSPECIFIED' ) ;
#41 = APPLICATION_PROTOCOL_DEFINITION ( 'international standard', 'config_control_design', 1994, #39 ) ;
#42 = EDGE_CURVE ( 'NONE', #4, #163, #99, .T. ) ;
#43 = DIRECTION ( 'NONE',  ( 0.0000000000000000000, 0.0000000000000000000, 1.000000000000000000 ) ) ;
#44 = LINE ( 'NONE', #89, #27 ) ;
#45 = DIRECTION ( 'NONE',  ( 0.0000000000000000000, 0.0000000000000000000, 1.000000000000000000 ) ) ;
#46 = DATE_AND_TIME ( #140, #51 ) ;
#47 = VERTEX_POINT ( 'NONE', #135 ) ;
#48 = EDGE_LOOP ( 'NONE', ( #15, #158, #108, #97 ) ) ;
#49 = DATE_AND_TIME ( #156, #91 ) ;
#50 = ORIENTED_EDGE ( 'NONE', *, *, #87, .F. ) ;
#51 = LOCAL_TIME ( 10, 51, 24.00000000000000000, #83 ) ;
#52 = DIRECTION ( 'NONE',  ( 0.0000000000000000000, 0.0000000000000000000, 1.000000000000000000 ) ) ;
#53 = AXIS2_PLACEMENT_3D ( 'NONE', #5, #52, #150 ) ;
#54 = DATE_TIME_ROLE ( 'classification_date' ) ;
#55 = DIRECTION ( 'NONE',  ( 1.000000000000000000, 0.0000000000000000000, 0.0000000000000000000 ) ) ;
#56 = CYLINDRICAL_SURFACE ( 'NONE', #143, 25.00000000000000000 ) ;
#57 = APPROVAL_DATE_TIME ( #115, #40 ) ;
#58 = PERSON_AND_ORGANIZATION_ROLE ( 'design_owner' ) ;
#59 = ORIENTED_EDGE ( 'NONE', *, *, #92, .T. ) ;
#60 = CC_DESIGN_DATE_AND_TIME_ASSIGNMENT ( #73, #54, ( #129 ) ) ;
#61 = ADVANCED_BREP_SHAPE_REPRESENTATION ( 'Web Model 84491', ( #67, #64 ), #98 ) ;
#62 = EDGE_CURVE ( 'NONE', #163, #47, #12, .T. ) ;
#63 = CALENDAR_DATE ( 2017, 1, 2 ) ;
#64 = AXIS2_PLACEMENT_3D ( 'NONE', #17, #104, #169 ) ;
#65 = EDGE_CURVE ( 'NONE', #93, #47, #44, .T. ) ;
#66 = CC_DESIGN_SECURITY_CLASSIFICATION ( #129, ( #162 ) ) ;
#67 = MANIFOLD_SOLID_BREP ( 'Extrude1', #23 ) ;
#68 = CARTESIAN_POINT ( 'NONE',  ( 0.0000000000000000000, 0.0000000000000000000, 4.000000000000000000 ) ) ;
#69 = APPROVAL_DATE_TIME ( #46, #101 ) ;
#70 = COORDINATED_UNIVERSAL_TIME_OFFSET ( 5, 0, .BEHIND. ) ;
#71 = CARTESIAN_POINT ( 'NONE',  ( 0.0000000000000000000, 0.0000000000000000000, 4.000000000000000000 ) ) ;
#72 = APPROVAL_PERSON_ORGANIZATION ( #1, #11, #107 ) ;
#73 = DATE_AND_TIME ( #79, #13 ) ;
#74 = CARTESIAN_POINT ( 'NONE',  ( 0.0000000000000000000, 0.0000000000000000000, 4.000000000000000000 ) ) ;
#75 = ORIENTED_EDGE ( 'NONE', *, *, #65, .T. ) ;
#76 = ORIENTED_EDGE ( 'NONE', *, *, #87, .T. ) ;
#77 = CC_DESIGN_APPROVAL ( #40, ( #129 ) ) ;
#78 = EDGE_CURVE ( 'NONE', #4, #93, #155, .T. ) ;
#79 = CALENDAR_DATE ( 2017, 1, 2 ) ;
#80 = CC_DESIGN_PERSON_AND_ORGANIZATION_ASSIGNMENT ( #123, #118, ( #139 ) ) ;
#81 = EDGE_LOOP ( 'NONE', ( #121, #18, #75, #76 ) ) ;
#82 = AXIS2_PLACEMENT_3D ( 'NONE', #68, #43, #21 ) ;
#83 = COORDINATED_UNIVERSAL_TIME_OFFSET ( 5, 0, .BEHIND. ) ;
#84 = ADVANCED_FACE ( 'NONE', ( #127 ), #56, .T. ) ;
#85 = CARTESIAN_POINT ( 'NONE',  ( 25.00000000000000000, 3.061616997868383000E-015, 0.0000000000000000000 ) ) ;
#86 = APPROVAL_ROLE ( '' ) ;
#87 = EDGE_CURVE ( 'NONE', #47, #163, #114, .T. ) ;
#88 = PERSON_AND_ORGANIZATION ( #32, #7 ) ;
#89 = CARTESIAN_POINT ( 'NONE',  ( -25.00000000000000000, 0.0000000000000000000, 4.000000000000000000 ) ) ;
#90 = PLANE ( 'NONE',  #94 ) ;
#91 = LOCAL_TIME ( 10, 51, 24.00000000000000000, #70 ) ;
#92 = EDGE_CURVE ( 'NONE', #93, #4, #33, .T. ) ;
#93 = VERTEX_POINT ( 'NONE', #105 ) ;
#94 = AXIS2_PLACEMENT_3D ( 'NONE', #74, #172, #10 ) ;
#95 =( NAMED_UNIT ( * ) PLANE_ANGLE_UNIT ( ) SI_UNIT ( $, .RADIAN. ) );
#96 = DIRECTION ( 'NONE',  ( 1.000000000000000000, 0.0000000000000000000, -0.0000000000000000000 ) ) ;
#97 = ORIENTED_EDGE ( 'NONE', *, *, #65, .F. ) ;
#98 =( GEOMETRIC_REPRESENTATION_CONTEXT ( 3 ) GLOBAL_UNCERTAINTY_ASSIGNED_CONTEXT ( ( #124 ) ) GLOBAL_UNIT_ASSIGNED_CONTEXT ( ( #8, #95, #102 ) ) REPRESENTATION_CONTEXT ( 'NONE', 'WORKASPACE' ) );
#99 = LINE ( 'NONE', #6, #111 ) ;
#100 = CC_DESIGN_APPROVAL ( #11, ( #139 ) ) ;
#101 = APPROVAL ( #117, 'UNSPECIFIED' ) ;
#102 =( NAMED_UNIT ( * ) SI_UNIT ( $, .STERADIAN. ) SOLID_ANGLE_UNIT ( ) );
#103 = DATE_AND_TIME ( #63, #134 ) ;
#104 = DIRECTION ( 'NONE',  ( 0.0000000000000000000, 0.0000000000000000000, 1.000000000000000000 ) ) ;
#105 = CARTESIAN_POINT ( 'NONE',  ( -25.00000000000000000, 0.0000000000000000000, 4.000000000000000000 ) ) ;
#106 = APPROVAL_ROLE ( '' ) ;
#107 = APPROVAL_ROLE ( '' ) ;
#108 = ORIENTED_EDGE ( 'NONE', *, *, #62, .T. ) ;
#109 = CC_DESIGN_PERSON_AND_ORGANIZATION_ASSIGNMENT ( #14, #153, ( #162 ) ) ;
#110 = PERSON_AND_ORGANIZATION ( #32, #7 ) ;
#111 = VECTOR ( 'NONE', #133, 1000.000000000000000 ) ;
#112 = AXIS2_PLACEMENT_3D ( 'NONE', #116, #9, #31 ) ;
#113 = DESIGN_CONTEXT ( 'detailed design', #39, 'design' ) ;
#114 = CIRCLE ( 'NONE', #53, 25.00000000000000000 ) ;
#115 = DATE_AND_TIME ( #171, #160 ) ;
#116 = CARTESIAN_POINT ( 'NONE',  ( 0.0000000000000000000, 0.0000000000000000000, 0.0000000000000000000 ) ) ;
#117 = APPROVAL_STATUS ( 'not_yet_approved' ) ;
#118 = PERSON_AND_ORGANIZATION_ROLE ( 'creator' ) ;
#119 = DIRECTION ( 'NONE',  ( -1.000000000000000000, 0.0000000000000000000, 0.0000000000000000000 ) ) ;
#120 = AXIS2_PLACEMENT_3D ( 'NONE', #137, #30, #55 ) ;
#121 = ORIENTED_EDGE ( 'NONE', *, *, #42, .F. ) ;
#122 = PLANE ( 'NONE',  #126 ) ;
#123 = PERSON_AND_ORGANIZATION ( #32, #7 ) ;
#124 = UNCERTAINTY_MEASURE_WITH_UNIT (LENGTH_MEASURE( 1.000000000000000100E-005 ), #8, 'distance_accuracy_value', 'NONE');
#125 = CC_DESIGN_APPROVAL ( #101, ( #162 ) ) ;
#126 = AXIS2_PLACEMENT_3D ( 'NONE', #154, #45, #96 ) ;
#127 = FACE_OUTER_BOUND ( 'NONE', #48, .T. ) ;
#128 = CC_DESIGN_PERSON_AND_ORGANIZATION_ASSIGNMENT ( #141, #58, ( #24 ) ) ;
#129 = SECURITY_CLASSIFICATION ( '', '', #38 ) ;
#130 = ORIENTED_EDGE ( 'NONE', *, *, #78, .T. ) ;
#131 = DIRECTION ( 'NONE',  ( -1.000000000000000000, 0.0000000000000000000, 0.0000000000000000000 ) ) ;
#132 = PERSON_AND_ORGANIZATION_ROLE ( 'classification_officer' ) ;
#133 = DIRECTION ( 'NONE',  ( -0.0000000000000000000, -0.0000000000000000000, -1.000000000000000000 ) ) ;
#134 = LOCAL_TIME ( 10, 51, 24.00000000000000000, #34 ) ;
#135 = CARTESIAN_POINT ( 'NONE',  ( -25.00000000000000000, 0.0000000000000000000, 0.0000000000000000000 ) ) ;
#136 = COORDINATED_UNIVERSAL_TIME_OFFSET ( 5, 0, .BEHIND. ) ;
#137 = CARTESIAN_POINT ( 'NONE',  ( 0.0000000000000000000, 0.0000000000000000000, 4.000000000000000000 ) ) ;
#138 = CARTESIAN_POINT ( 'NONE',  ( 25.00000000000000000, 3.061616997868383000E-015, 4.000000000000000000 ) ) ;
#139 = PRODUCT_DEFINITION ( 'UNKNOWN', '', #162, #113 ) ;
#140 = CALENDAR_DATE ( 2017, 1, 2 ) ;
#141 = PERSON_AND_ORGANIZATION ( #32, #7 ) ;
#142 = ADVANCED_FACE ( 'NONE', ( #159 ), #22, .T. ) ;
#143 = AXIS2_PLACEMENT_3D ( 'NONE', #28, #152, #119 ) ;
#144 = EDGE_LOOP ( 'NONE', ( #59, #130 ) ) ;
#145 = PRODUCT_DEFINITION_SHAPE ( 'NONE', 'NONE',  #139 ) ;
#146 = ORIENTED_EDGE ( 'NONE', *, *, #62, .F. ) ;
#147 = FACE_OUTER_BOUND ( 'NONE', #157, .T. ) ;
#148 = CC_DESIGN_DATE_AND_TIME_ASSIGNMENT ( #49, #29, ( #139 ) ) ;
#149 = PERSON_AND_ORGANIZATION ( #32, #7 ) ;
#150 = DIRECTION ( 'NONE',  ( 1.000000000000000000, 0.0000000000000000000, 0.0000000000000000000 ) ) ;
#151 = MECHANICAL_CONTEXT ( 'NONE', #170, 'mechanical' ) ;
#152 = DIRECTION ( 'NONE',  ( -0.0000000000000000000, -0.0000000000000000000, -1.000000000000000000 ) ) ;
#153 = PERSON_AND_ORGANIZATION_ROLE ( 'creator' ) ;
#154 = CARTESIAN_POINT ( 'NONE',  ( 0.0000000000000000000, 0.0000000000000000000, 0.0000000000000000000 ) ) ;
#155 = CIRCLE ( 'NONE', #120, 25.00000000000000000 ) ;
#156 = CALENDAR_DATE ( 2017, 1, 2 ) ;
#157 = EDGE_LOOP ( 'NONE', ( #50, #146 ) ) ;
#158 = ORIENTED_EDGE ( 'NONE', *, *, #42, .T. ) ;
#159 = FACE_OUTER_BOUND ( 'NONE', #81, .T. ) ;
#160 = LOCAL_TIME ( 10, 51, 24.00000000000000000, #136 ) ;
#161 = APPROVAL_DATE_TIME ( #103, #11 ) ;
#162 = PRODUCT_DEFINITION_FORMATION_WITH_SPECIFIED_SOURCE ( 'ANY', '', #24, .NOT_KNOWN. ) ;
#163 = VERTEX_POINT ( 'NONE', #85 ) ;
#164 = SHAPE_DEFINITION_REPRESENTATION ( #145, #61 ) ;
#165 = CC_DESIGN_PERSON_AND_ORGANIZATION_ASSIGNMENT ( #149, #166, ( #162 ) ) ;
#166 = PERSON_AND_ORGANIZATION_ROLE ( 'design_supplier' ) ;
#167 = APPLICATION_PROTOCOL_DEFINITION ( 'international standard', 'config_control_design', 1994, #170 ) ;
#168 = APPROVAL_STATUS ( 'not_yet_approved' ) ;
#169 = DIRECTION ( 'NONE',  ( 1.000000000000000000, 0.0000000000000000000, 0.0000000000000000000 ) ) ;
#170 = APPLICATION_CONTEXT ( 'configuration controlled 3d designs of mechanical parts and assemblies' ) ;
#171 = CALENDAR_DATE ( 2017, 1, 2 ) ;
#172 = DIRECTION ( 'NONE',  ( 0.0000000000000000000, 0.0000000000000000000, 1.000000000000000000 ) ) ;
#173 = PRODUCT_RELATED_PRODUCT_CATEGORY ( 'detail', '', ( #24 ) ) ;
#174 = AXIS2_PLACEMENT_3D ( 'NONE', #71, #19, #131 ) ;
#175 = CC_DESIGN_PERSON_AND_ORGANIZATION_ASSIGNMENT ( #110, #132, ( #129 ) ) ;
ENDSEC;
END-ISO-10303-21;
