ISO-10303-21;
HEADER;
FILE_DESCRIPTION (( 'STEP AP203' ),
    '1' );
FILE_NAME ('Web Model 18292_18294.step',
    '2021-06-30T19:34:35',
    ( '' ),
    ( '' ),
    'SwSTEP 2.0',
    'SolidWorks 2018',
    '' );
FILE_SCHEMA (( 'CONFIG_CONTROL_DESIGN' ));
ENDSEC;

DATA;
#1 = DATE_AND_TIME ( #136, #107 ) ;
#2 = CARTESIAN_POINT ( 'NONE',  ( 0.000000000000000000, 0.000000000000000000, 0.000000000000000000 ) ) ;
#3 = DIRECTION ( 'NONE',  ( 1.000000000000000000, 0.000000000000000000, 0.000000000000000000 ) ) ;
#4 = DIRECTION ( 'NONE',  ( -0.000000000000000000, -0.000000000000000000, -1.000000000000000000 ) ) ;
#5 = DATE_AND_TIME ( #142, #171 ) ;
#6 = DIRECTION ( 'NONE',  ( 1.000000000000000000, 0.000000000000000000, -0.000000000000000000 ) ) ;
#7 = CC_DESIGN_SECURITY_CLASSIFICATION ( #51, ( #101 ) ) ;
#8 = AXIS2_PLACEMENT_3D ( 'NONE', #110, #137, #43 ) ;
#9 = ADVANCED_BREP_SHAPE_REPRESENTATION ( 'Web Model 18292_18294', ( #36, #151 ), #134 ) ;
#10 = APPROVAL_PERSON_ORGANIZATION ( #123, #139, #145 ) ;
#11 = CALENDAR_DATE ( 2021, 30, 6 ) ;
#12 = ORIENTED_EDGE ( 'NONE', *, *, #85, .F. ) ;
#13 = CALENDAR_DATE ( 2021, 30, 6 ) ;
#14 = CC_DESIGN_PERSON_AND_ORGANIZATION_ASSIGNMENT ( #82, #88, ( #25 ) ) ;
#15 = PERSON_AND_ORGANIZATION ( #124, #50 ) ;
#16 = APPROVAL_ROLE ( '' ) ;
#17 = LINE ( 'NONE', #152, #114 ) ;
#18 = MECHANICAL_CONTEXT ( 'NONE', #53, 'mechanical' ) ;
#19 = PERSON_AND_ORGANIZATION_ROLE ( 'classification_officer' ) ;
#20 = PERSON_AND_ORGANIZATION_ROLE ( 'design_supplier' ) ;
#21 = CARTESIAN_POINT ( 'NONE',  ( 0.000000000000000000, 0.000000000000000000, 0.6999999999999999556 ) ) ;
#22 = APPROVAL_PERSON_ORGANIZATION ( #63, #103, #16 ) ;
#23 = CARTESIAN_POINT ( 'NONE',  ( 0.000000000000000000, 0.000000000000000000, 0.6999999999999999556 ) ) ;
#24 = FACE_OUTER_BOUND ( 'NONE', #170, .T. ) ;
#25 = PRODUCT_DEFINITION ( 'UNKNOWN', '', #101, #129 ) ;
#26 = CALENDAR_DATE ( 2021, 30, 6 ) ;
#27 = VERTEX_POINT ( 'NONE', #56 ) ;
#28 = EDGE_CURVE ( 'NONE', #27, #98, #42, .T. ) ;
#29 = DIRECTION ( 'NONE',  ( 0.000000000000000000, 0.000000000000000000, 1.000000000000000000 ) ) ;
#30 = ORIENTED_EDGE ( 'NONE', *, *, #173, .F. ) ;
#31 = COORDINATED_UNIVERSAL_TIME_OFFSET ( 5, 0, .BEHIND. ) ;
#32 = CARTESIAN_POINT ( 'NONE',  ( 0.000000000000000000, 0.000000000000000000, 0.6999999999999999556 ) ) ;
#33 = CARTESIAN_POINT ( 'NONE',  ( -25.00000000000000000, 0.000000000000000000, 0.6999999999999999556 ) ) ;
#34 = EDGE_CURVE ( 'NONE', #27, #94, #132, .T. ) ;
#35 = ADVANCED_FACE ( 'NONE', ( #126 ), #165, .T. ) ;
#36 = MANIFOLD_SOLID_BREP ( 'Boss-Extrude1', #162 ) ;
#37 = COORDINATED_UNIVERSAL_TIME_OFFSET ( 5, 0, .BEHIND. ) ;
#38 = ADVANCED_FACE ( 'NONE', ( #78 ), #148, .F. ) ;
#39 = APPROVAL_DATE_TIME ( #99, #103 ) ;
#40 = PERSON_AND_ORGANIZATION_ROLE ( 'creator' ) ;
#41 = APPROVAL_STATUS ( 'not_yet_approved' ) ;
#42 = LINE ( 'NONE', #166, #87 ) ;
#43 = DIRECTION ( 'NONE',  ( 1.000000000000000000, 0.000000000000000000, 0.000000000000000000 ) ) ;
#44 = COORDINATED_UNIVERSAL_TIME_OFFSET ( 5, 0, .BEHIND. ) ;
#45 = LOCAL_TIME ( 15, 34, 35.00000000000000000, #44 ) ;
#46 = ADVANCED_FACE ( 'NONE', ( #24 ), #111, .T. ) ;
#47 = CC_DESIGN_APPROVAL ( #139, ( #101 ) ) ;
#48 = AXIS2_PLACEMENT_3D ( 'NONE', #32, #120, #106 ) ;
#49 = ADVANCED_FACE ( 'NONE', ( #74 ), #117, .T. ) ;
#50 = ORGANIZATION ( 'UNSPECIFIED', 'UNSPECIFIED', '' ) ;
#51 = SECURITY_CLASSIFICATION ( '', '', #174 ) ;
#52 = COORDINATED_UNIVERSAL_TIME_OFFSET ( 5, 0, .BEHIND. ) ;
#53 = APPLICATION_CONTEXT ( 'configuration controlled 3d designs of mechanical parts and assemblies' ) ;
#54 = ORIENTED_EDGE ( 'NONE', *, *, #84, .T. ) ;
#55 = CARTESIAN_POINT ( 'NONE',  ( 0.000000000000000000, 0.000000000000000000, 0.6999999999999999556 ) ) ;
#56 = CARTESIAN_POINT ( 'NONE',  ( 25.00000000000000000, 3.061616997868383043E-15, 0.6999999999999999556 ) ) ;
#57 = ORIENTED_EDGE ( 'NONE', *, *, #173, .T. ) ;
#58 = CC_DESIGN_PERSON_AND_ORGANIZATION_ASSIGNMENT ( #140, #20, ( #101 ) ) ;
#59 = CC_DESIGN_DATE_AND_TIME_ASSIGNMENT ( #1, #80, ( #51 ) ) ;
#60 = AXIS2_PLACEMENT_3D ( 'NONE', #164, #29, #6 ) ;
#61 = DATE_AND_TIME ( #13, #73 ) ;
#62 = ORIENTED_EDGE ( 'NONE', *, *, #34, .T. ) ;
#63 = PERSON_AND_ORGANIZATION ( #124, #50 ) ;
#64 = APPLICATION_PROTOCOL_DEFINITION ( 'international standard', 'config_control_design', 1994, #53 ) ;
#65 = CC_DESIGN_PERSON_AND_ORGANIZATION_ASSIGNMENT ( #15, #40, ( #101 ) ) ;
#66 = APPROVAL_STATUS ( 'not_yet_approved' ) ;
#67 =( LENGTH_UNIT ( ) NAMED_UNIT ( * ) SI_UNIT ( .MILLI., .METRE. ) );
#68 = APPROVAL_ROLE ( '' ) ;
#69 = ORIENTED_EDGE ( 'NONE', *, *, #34, .F. ) ;
#70 = AXIS2_PLACEMENT_3D ( 'NONE', #21, #135, #122 ) ;
#71 = DIRECTION ( 'NONE',  ( -0.000000000000000000, -0.000000000000000000, -1.000000000000000000 ) ) ;
#72 = DIRECTION ( 'NONE',  ( -1.000000000000000000, 0.000000000000000000, 0.000000000000000000 ) ) ;
#73 = LOCAL_TIME ( 15, 34, 35.00000000000000000, #112 ) ;
#74 = FACE_OUTER_BOUND ( 'NONE', #167, .T. ) ;
#75 = SHAPE_DEFINITION_REPRESENTATION ( #121, #9 ) ;
#76 = CIRCLE ( 'NONE', #8, 25.00000000000000000 ) ;
#77 = APPROVAL_DATE_TIME ( #61, #139 ) ;
#78 = FACE_OUTER_BOUND ( 'NONE', #89, .T. ) ;
#79 = AXIS2_PLACEMENT_3D ( 'NONE', #55, #81, #119 ) ;
#80 = DATE_TIME_ROLE ( 'classification_date' ) ;
#81 = DIRECTION ( 'NONE',  ( 0.000000000000000000, 0.000000000000000000, 1.000000000000000000 ) ) ;
#82 = PERSON_AND_ORGANIZATION ( #124, #50 ) ;
#83 = CC_DESIGN_APPROVAL ( #150, ( #25 ) ) ;
#84 = EDGE_CURVE ( 'NONE', #98, #108, #76, .T. ) ;
#85 = EDGE_CURVE ( 'NONE', #94, #108, #17, .T. ) ;
#86 = DATE_AND_TIME ( #11, #45 ) ;
#87 = VECTOR ( 'NONE', #4, 1000.000000000000000 ) ;
#88 = PERSON_AND_ORGANIZATION_ROLE ( 'creator' ) ;
#89 = EDGE_LOOP ( 'NONE', ( #30, #113 ) ) ;
#90 = DIRECTION ( 'NONE',  ( 1.000000000000000000, 0.000000000000000000, 0.000000000000000000 ) ) ;
#91 = CARTESIAN_POINT ( 'NONE',  ( 0.000000000000000000, 0.000000000000000000, 0.6999999999999999556 ) ) ;
#92 = CC_DESIGN_DATE_AND_TIME_ASSIGNMENT ( #86, #175, ( #25 ) ) ;
#93 = AXIS2_PLACEMENT_3D ( 'NONE', #2, #115, #90 ) ;
#94 = VERTEX_POINT ( 'NONE', #33 ) ;
#95 = UNCERTAINTY_MEASURE_WITH_UNIT (LENGTH_MEASURE( 1.000000000000000082E-05 ), #67, 'distance_accuracy_value', 'NONE');
#96 = PERSON_AND_ORGANIZATION ( #124, #50 ) ;
#97 = PRODUCT ( 'Web Model 18292_18294', 'Web Model 18292_18294', '', ( #18 ) ) ;
#98 = VERTEX_POINT ( 'NONE', #125 ) ;
#99 = DATE_AND_TIME ( #26, #116 ) ;
#100 = APPROVAL_PERSON_ORGANIZATION ( #96, #150, #68 ) ;
#101 = PRODUCT_DEFINITION_FORMATION_WITH_SPECIFIED_SOURCE ( 'ANY', '', #97, .NOT_KNOWN. ) ;
#102 = EDGE_LOOP ( 'NONE', ( #128, #62 ) ) ;
#103 = APPROVAL ( #41, 'UNSPECIFIED' ) ;
#104 = AXIS2_PLACEMENT_3D ( 'NONE', #23, #138, #72 ) ;
#105 = CIRCLE ( 'NONE', #93, 25.00000000000000000 ) ;
#106 = DIRECTION ( 'NONE',  ( 1.000000000000000000, 0.000000000000000000, -0.000000000000000000 ) ) ;
#107 = LOCAL_TIME ( 15, 34, 35.00000000000000000, #37 ) ;
#108 = VERTEX_POINT ( 'NONE', #153 ) ;
#109 = PERSON_AND_ORGANIZATION ( #124, #50 ) ;
#110 = CARTESIAN_POINT ( 'NONE',  ( 0.000000000000000000, 0.000000000000000000, 0.000000000000000000 ) ) ;
#111 = CYLINDRICAL_SURFACE ( 'NONE', #70, 25.00000000000000000 ) ;
#112 = COORDINATED_UNIVERSAL_TIME_OFFSET ( 5, 0, .BEHIND. ) ;
#113 = ORIENTED_EDGE ( 'NONE', *, *, #84, .F. ) ;
#114 = VECTOR ( 'NONE', #71, 1000.000000000000000 ) ;
#115 = DIRECTION ( 'NONE',  ( 0.000000000000000000, 0.000000000000000000, 1.000000000000000000 ) ) ;
#116 = LOCAL_TIME ( 15, 34, 35.00000000000000000, #52 ) ;
#117 = CYLINDRICAL_SURFACE ( 'NONE', #104, 25.00000000000000000 ) ;
#118 = APPLICATION_PROTOCOL_DEFINITION ( 'international standard', 'config_control_design', 1994, #147 ) ;
#119 = DIRECTION ( 'NONE',  ( 1.000000000000000000, 0.000000000000000000, 0.000000000000000000 ) ) ;
#120 = DIRECTION ( 'NONE',  ( 0.000000000000000000, 0.000000000000000000, 1.000000000000000000 ) ) ;
#121 = PRODUCT_DEFINITION_SHAPE ( 'NONE', 'NONE',  #25 ) ;
#122 = DIRECTION ( 'NONE',  ( -1.000000000000000000, 0.000000000000000000, 0.000000000000000000 ) ) ;
#123 = PERSON_AND_ORGANIZATION ( #124, #50 ) ;
#124 = PERSON ( 'UNSPECIFIED', 'UNSPECIFIED', 'UNSPECIFIED', ('UNSPECIFIED'), ('UNSPECIFIED'), ('UNSPECIFIED') ) ;
#125 = CARTESIAN_POINT ( 'NONE',  ( 25.00000000000000000, 3.061616997868383043E-15, 0.000000000000000000 ) ) ;
#126 = FACE_OUTER_BOUND ( 'NONE', #102, .T. ) ;
#127 = ORIENTED_EDGE ( 'NONE', *, *, #85, .T. ) ;
#128 = ORIENTED_EDGE ( 'NONE', *, *, #159, .T. ) ;
#129 = DESIGN_CONTEXT ( 'detailed design', #147, 'design' ) ;
#130 = ORIENTED_EDGE ( 'NONE', *, *, #28, .F. ) ;
#131 = PRODUCT_RELATED_PRODUCT_CATEGORY ( 'detail', '', ( #97 ) ) ;
#132 = CIRCLE ( 'NONE', #154, 25.00000000000000000 ) ;
#133 = DIRECTION ( 'NONE',  ( 0.000000000000000000, 0.000000000000000000, 1.000000000000000000 ) ) ;
#134 =( GEOMETRIC_REPRESENTATION_CONTEXT ( 3 ) GLOBAL_UNCERTAINTY_ASSIGNED_CONTEXT ( ( #95 ) ) GLOBAL_UNIT_ASSIGNED_CONTEXT ( ( #67, #143, #160 ) ) REPRESENTATION_CONTEXT ( 'NONE', 'WORKASPACE' ) );
#135 = DIRECTION ( 'NONE',  ( -0.000000000000000000, -0.000000000000000000, -1.000000000000000000 ) ) ;
#136 = CALENDAR_DATE ( 2021, 30, 6 ) ;
#137 = DIRECTION ( 'NONE',  ( 0.000000000000000000, 0.000000000000000000, 1.000000000000000000 ) ) ;
#138 = DIRECTION ( 'NONE',  ( -0.000000000000000000, -0.000000000000000000, -1.000000000000000000 ) ) ;
#139 = APPROVAL ( #163, 'UNSPECIFIED' ) ;
#140 = PERSON_AND_ORGANIZATION ( #124, #50 ) ;
#141 = PERSON_AND_ORGANIZATION ( #124, #50 ) ;
#142 = CALENDAR_DATE ( 2021, 30, 6 ) ;
#143 =( NAMED_UNIT ( * ) PLANE_ANGLE_UNIT ( ) SI_UNIT ( $, .RADIAN. ) );
#144 = CIRCLE ( 'NONE', #79, 25.00000000000000000 ) ;
#145 = APPROVAL_ROLE ( '' ) ;
#146 = DIRECTION ( 'NONE',  ( 0.000000000000000000, 0.000000000000000000, 1.000000000000000000 ) ) ;
#147 = APPLICATION_CONTEXT ( 'configuration controlled 3d designs of mechanical parts and assemblies' ) ;
#148 = PLANE ( 'NONE',  #60 ) ;
#149 = DIRECTION ( 'NONE',  ( 1.000000000000000000, 0.000000000000000000, 0.000000000000000000 ) ) ;
#150 = APPROVAL ( #66, 'UNSPECIFIED' ) ;
#151 = AXIS2_PLACEMENT_3D ( 'NONE', #168, #133, #3 ) ;
#152 = CARTESIAN_POINT ( 'NONE',  ( -25.00000000000000000, 0.000000000000000000, 0.6999999999999999556 ) ) ;
#153 = CARTESIAN_POINT ( 'NONE',  ( -25.00000000000000000, 0.000000000000000000, 0.000000000000000000 ) ) ;
#154 = AXIS2_PLACEMENT_3D ( 'NONE', #91, #146, #149 ) ;
#155 = APPROVAL_DATE_TIME ( #5, #150 ) ;
#156 = ORIENTED_EDGE ( 'NONE', *, *, #28, .T. ) ;
#157 = CC_DESIGN_APPROVAL ( #103, ( #51 ) ) ;
#158 = CC_DESIGN_PERSON_AND_ORGANIZATION_ASSIGNMENT ( #109, #161, ( #97 ) ) ;
#159 = EDGE_CURVE ( 'NONE', #94, #27, #144, .T. ) ;
#160 =( NAMED_UNIT ( * ) SI_UNIT ( $, .STERADIAN. ) SOLID_ANGLE_UNIT ( ) );
#161 = PERSON_AND_ORGANIZATION_ROLE ( 'design_owner' ) ;
#162 = CLOSED_SHELL ( 'NONE', ( #49, #46, #35, #38 ) ) ;
#163 = APPROVAL_STATUS ( 'not_yet_approved' ) ;
#164 = CARTESIAN_POINT ( 'NONE',  ( 0.000000000000000000, 0.000000000000000000, 0.000000000000000000 ) ) ;
#165 = PLANE ( 'NONE',  #48 ) ;
#166 = CARTESIAN_POINT ( 'NONE',  ( 25.00000000000000000, 3.061616997868383043E-15, 0.6999999999999999556 ) ) ;
#167 = EDGE_LOOP ( 'NONE', ( #69, #156, #54, #12 ) ) ;
#168 = CARTESIAN_POINT ( 'NONE',  ( 0.000000000000000000, 0.000000000000000000, 0.000000000000000000 ) ) ;
#169 = ORIENTED_EDGE ( 'NONE', *, *, #159, .F. ) ;
#170 = EDGE_LOOP ( 'NONE', ( #130, #169, #127, #57 ) ) ;
#171 = LOCAL_TIME ( 15, 34, 35.00000000000000000, #31 ) ;
#172 = CC_DESIGN_PERSON_AND_ORGANIZATION_ASSIGNMENT ( #141, #19, ( #51 ) ) ;
#173 = EDGE_CURVE ( 'NONE', #108, #98, #105, .T. ) ;
#174 = SECURITY_CLASSIFICATION_LEVEL ( 'unclassified' ) ;
#175 = DATE_TIME_ROLE ( 'creation_date' ) ;
ENDSEC;
END-ISO-10303-21;
