ISO-10303-21;
HEADER;
FILE_DESCRIPTION (( 'STEP AP214' ),
    '1' );
FILE_NAME ('4567-E0W.STEP',
    '2009-12-21T17:10:37',
    ( ' ' ),
    ( ' ' ),
    'SwSTEP 2.0',
    'SolidWorks 2009',
    '' );
FILE_SCHEMA (( 'AUTOMOTIVE_DESIGN' ));
ENDSEC;

DATA;
#1 = ADVANCED_FACE ( 'NONE', ( #21 ), #65, .T. ) ;
#2 = EDGE_LOOP ( 'NONE', ( #138, #139 ) ) ;
#3 = ORIENTED_EDGE ( 'NONE', *, *, #26, .F. ) ;
#4 = ORIENTED_EDGE ( 'NONE', *, *, #148, .T. ) ;
#5 = ORIENTED_EDGE ( 'NONE', *, *, #28, .F. ) ;
#6 = ORIENTED_EDGE ( 'NONE', *, *, #32, .T. ) ;
#7 = ADVANCED_FACE ( 'NONE', ( #88 ), #61, .T. ) ;
#8 = EDGE_CURVE ( 'NONE', #35, #149, #78, .T. ) ;
#9 = ORIENTED_EDGE ( 'NONE', *, *, #8, .T. ) ;
#10 = ADVANCED_FACE ( 'NONE', ( #79 ), #106, .T. ) ;
#11 = EDGE_LOOP ( 'NONE', ( #20, #16, #144, #147, #150 ) ) ;
#12 = ORIENTED_EDGE ( 'NONE', *, *, #151, .T. ) ;
#13 = ORIENTED_EDGE ( 'NONE', *, *, #8, .F. ) ;
#14 = COLOUR_RGB ( '',0.9568627450980391500, 0.9490196078431372100, 0.9607843137254902200 ) ;
#15 = VERTEX_POINT ( 'NONE', #120 ) ;
#16 = ORIENTED_EDGE ( 'NONE', *, *, #23, .T. ) ;
#17 = FILL_AREA_STYLE_COLOUR ( '', #14 ) ;
#18 = ORIENTED_EDGE ( 'NONE', *, *, #19, .T. ) ;
#19 = EDGE_CURVE ( 'NONE', #15, #142, #116, .T. ) ;
#20 = ORIENTED_EDGE ( 'NONE', *, *, #141, .T. ) ;
#21 = FACE_OUTER_BOUND ( 'NONE', #24, .T. ) ;
#22 = MANIFOLD_SOLID_BREP ( 'NONE', #140 ) ;
#23 = EDGE_CURVE ( 'NONE', #15, #143, #133, .T. ) ;
#24 = EDGE_LOOP ( 'NONE', ( #25, #18, #12, #13, #3 ) ) ;
#25 = ORIENTED_EDGE ( 'NONE', *, *, #23, .F. ) ;
#26 = EDGE_CURVE ( 'NONE', #143, #35, #123, .T. ) ;
#27 = ORIENTED_EDGE ( 'NONE', *, *, #28, .T. ) ;
#28 = EDGE_CURVE ( 'NONE', #35, #29, #111, .T. ) ;
#29 = VERTEX_POINT ( 'NONE', #193 ) ;
#30 = ORIENTED_EDGE ( 'NONE', *, *, #145, .T. ) ;
#31 = ORIENTED_EDGE ( 'NONE', *, *, #32, .F. ) ;
#32 = EDGE_CURVE ( 'NONE', #146, #29, #187, .T. ) ;
#33 = EDGE_LOOP ( 'NONE', ( #5, #9, #4, #6 ) ) ;
#34 = ORIENTED_EDGE ( 'NONE', *, *, #26, .T. ) ;
#35 = VERTEX_POINT ( 'NONE', #194 ) ;
#36 = SURFACE_STYLE_FILL_AREA ( #37 ) ;
#37 = FILL_AREA_STYLE ('',( #17 ) ) ;
#38 = SURFACE_SIDE_STYLE ('',( #36 ) ) ;
#39 = PRESENTATION_STYLE_ASSIGNMENT (( #41 ) ) ;
#40 =( LENGTH_UNIT ( ) NAMED_UNIT ( * ) SI_UNIT ( .MILLI., .METRE. ) );
#41 = SURFACE_STYLE_USAGE ( .BOTH. , #38 ) ;
#42 = STYLED_ITEM ( 'NONE', ( #39 ), #1 ) ;
#43 = MECHANICAL_DESIGN_GEOMETRIC_PRESENTATION_REPRESENTATION (  '', ( #42 ), #49 ) ;
#44 = PRESENTATION_LAYER_ASSIGNMENT (  '', '', ( #42 ) ) ;
#45 = UNCERTAINTY_MEASURE_WITH_UNIT (LENGTH_MEASURE( 1.000000000000000100E-005 ), #40, 'distance_accuracy_value', 'NONE');
#46 =( NAMED_UNIT ( * ) PLANE_ANGLE_UNIT ( ) SI_UNIT ( $, .RADIAN. ) );
#47 =( NAMED_UNIT ( * ) SI_UNIT ( $, .STERADIAN. ) SOLID_ANGLE_UNIT ( ) );
#48 =( LENGTH_UNIT ( ) NAMED_UNIT ( * ) SI_UNIT ( .MILLI., .METRE. ) );
#49 =( GEOMETRIC_REPRESENTATION_CONTEXT ( 3 ) GLOBAL_UNCERTAINTY_ASSIGNED_CONTEXT ( ( #45 ) ) GLOBAL_UNIT_ASSIGNED_CONTEXT ( ( #40, #46, #47 ) ) REPRESENTATION_CONTEXT ( 'NONE', 'WORKASPACE' ) );
#50 =( LENGTH_UNIT ( ) NAMED_UNIT ( * ) SI_UNIT ( .MILLI., .METRE. ) );
#51 =( NAMED_UNIT ( * ) SI_UNIT ( $, .STERADIAN. ) SOLID_ANGLE_UNIT ( ) );
#52 = FILL_AREA_STYLE ('',( #87 ) ) ;
#53 = MECHANICAL_DESIGN_GEOMETRIC_PRESENTATION_REPRESENTATION (  '', ( #55 ), #114 ) ;
#54 = PRESENTATION_LAYER_ASSIGNMENT (  '', '', ( #55 ) ) ;
#55 = STYLED_ITEM ( 'NONE', ( #56 ), #10 ) ;
#56 = PRESENTATION_STYLE_ASSIGNMENT (( #71 ) ) ;
#57 = SURFACE_SIDE_STYLE ('',( #81 ) ) ;
#58 = DIRECTION ( 'NONE',  ( -1.000000000000000000, 0.0000000000000000000, 0.0000000000000000000 ) ) ;
#59 = CARTESIAN_POINT ( 'NONE',  ( 0.0000000000000000000, 0.0000000000000000000, -9.035000000000000100 ) ) ;
#60 = AXIS2_PLACEMENT_3D ( 'NONE', #59, #58, #67 ) ;
#61 = SPHERICAL_SURFACE ( 'NONE', #60, 10.30000000000000100 ) ;
#62 = UNCERTAINTY_MEASURE_WITH_UNIT (LENGTH_MEASURE( 1.000000000000000100E-005 ), #50, 'distance_accuracy_value', 'NONE');
#63 = CARTESIAN_POINT ( 'NONE',  ( 0.0000000000000000000, 0.0000000000000000000, 4.308132045400366600 ) ) ;
#64 = DIRECTION ( 'NONE',  ( 1.000000000000000000, 0.0000000000000000000, 0.0000000000000000000 ) ) ;
#65 = CYLINDRICAL_SURFACE ( 'NONE', #76, 4.500000000000000900 ) ;
#66 = CARTESIAN_POINT ( 'NONE',  ( 0.0000000000000000000, 0.0000000000000000000, 0.2299878575203759500 ) ) ;
#67 = DIRECTION ( 'NONE',  ( 0.0000000000000000000, 1.000000000000000000, 0.0000000000000000000 ) ) ;
#68 =( NAMED_UNIT ( * ) PLANE_ANGLE_UNIT ( ) SI_UNIT ( $, .RADIAN. ) );
#69 =( GEOMETRIC_REPRESENTATION_CONTEXT ( 3 ) GLOBAL_UNCERTAINTY_ASSIGNED_CONTEXT ( ( #62 ) ) GLOBAL_UNIT_ASSIGNED_CONTEXT ( ( #50, #68, #51 ) ) REPRESENTATION_CONTEXT ( 'NONE', 'WORKASPACE' ) );
#70 = PRESENTATION_STYLE_ASSIGNMENT (( #80 ) ) ;
#71 = SURFACE_STYLE_USAGE ( .BOTH. , #72 ) ;
#72 = SURFACE_SIDE_STYLE ('',( #73 ) ) ;
#73 = SURFACE_STYLE_FILL_AREA ( #74 ) ;
#74 = FILL_AREA_STYLE ('',( #89 ) ) ;
#75 = COLOUR_RGB ( '',0.9568627450980391500, 0.9490196078431372100, 0.9607843137254902200 ) ;
#76 = AXIS2_PLACEMENT_3D ( 'NONE', #63, #84, #64 ) ;
#77 = AXIS2_PLACEMENT_3D ( 'NONE', #66, #91, #90 ) ;
#78 = CIRCLE ( 'NONE', #77, 4.500000000000000900 ) ;
#79 = FACE_OUTER_BOUND ( 'NONE', #11, .T. ) ;
#80 = SURFACE_STYLE_USAGE ( .BOTH. , #57 ) ;
#81 = SURFACE_STYLE_FILL_AREA ( #52 ) ;
#82 = STYLED_ITEM ( 'NONE', ( #70 ), #7 ) ;
#83 = COLOUR_RGB ( '',0.9568627450980391500, 0.9490196078431372100, 0.9607843137254902200 ) ;
#84 = DIRECTION ( 'NONE',  ( -0.0000000000000000000, -0.0000000000000000000, 1.000000000000000000 ) ) ;
#85 = MECHANICAL_DESIGN_GEOMETRIC_PRESENTATION_REPRESENTATION (  '', ( #82 ), #69 ) ;
#86 = PRESENTATION_LAYER_ASSIGNMENT (  '', '', ( #82 ) ) ;
#87 = FILL_AREA_STYLE_COLOUR ( '', #83 ) ;
#88 = FACE_OUTER_BOUND ( 'NONE', #33, .T. ) ;
#89 = FILL_AREA_STYLE_COLOUR ( '', #75 ) ;
#90 = DIRECTION ( 'NONE',  ( 1.000000000000000000, 0.0000000000000000000, 0.0000000000000000000 ) ) ;
#91 = DIRECTION ( 'NONE',  ( -0.0000000000000000000, -0.0000000000000000000, 1.000000000000000000 ) ) ;
#92 = UNCERTAINTY_MEASURE_WITH_UNIT (LENGTH_MEASURE( 1.000000000000000100E-005 ), #127, 'distance_accuracy_value', 'NONE');
#93 =( NAMED_UNIT ( * ) SI_UNIT ( $, .STERADIAN. ) SOLID_ANGLE_UNIT ( ) );
#94 = SURFACE_STYLE_USAGE ( .BOTH. , #95 ) ;
#95 = SURFACE_SIDE_STYLE ('',( #96 ) ) ;
#96 = SURFACE_STYLE_FILL_AREA ( #97 ) ;
#97 = FILL_AREA_STYLE ('',( #117 ) ) ;
#98 = COLOUR_RGB ( '',0.7960784313725489700, 0.8235294117647058400, 0.9372549019607843100 ) ;
#99 = DIRECTION ( 'NONE',  ( 1.000000000000000000, 0.0000000000000000000, 0.0000000000000000000 ) ) ;
#100 = DIRECTION ( 'NONE',  ( -0.0000000000000000000, -0.0000000000000000000, 1.000000000000000000 ) ) ;
#101 = AXIS2_PLACEMENT_3D ( 'NONE', #115, #100, #99 ) ;
#102 = UNCERTAINTY_MEASURE_WITH_UNIT (LENGTH_MEASURE( 1.000000000000000100E-005 ), #48, 'distance_accuracy_value', 'NONE');
#103 =( NAMED_UNIT ( * ) PLANE_ANGLE_UNIT ( ) SI_UNIT ( $, .RADIAN. ) );
#104 = CARTESIAN_POINT ( 'NONE',  ( 0.0000000000000000000, 0.0000000000000000000, 4.308132045400366600 ) ) ;
#105 = AXIS2_PLACEMENT_3D ( 'NONE', #104, #119, #118 ) ;
#106 = CYLINDRICAL_SURFACE ( 'NONE', #105, 4.500000000000000900 ) ;
#107 = DIRECTION ( 'NONE',  ( -1.224606353822377300E-016, -1.000000000000000000, 0.0000000000000000000 ) ) ;
#108 = DIRECTION ( 'NONE',  ( -1.000000000000000000, 1.224606353822377300E-016, 0.0000000000000000000 ) ) ;
#109 = CARTESIAN_POINT ( 'NONE',  ( 0.0000000000000000000, 0.0000000000000000000, -9.035000000000000100 ) ) ;
#110 = AXIS2_PLACEMENT_3D ( 'NONE', #109, #108, #107 ) ;
#111 = CIRCLE ( 'NONE', #110, 10.30000000000000100 ) ;
#112 = DIRECTION ( 'NONE',  ( 1.000000000000000000, 0.0000000000000000000, 0.0000000000000000000 ) ) ;
#113 = DIRECTION ( 'NONE',  ( -0.0000000000000000000, -0.0000000000000000000, 1.000000000000000000 ) ) ;
#114 =( GEOMETRIC_REPRESENTATION_CONTEXT ( 3 ) GLOBAL_UNCERTAINTY_ASSIGNED_CONTEXT ( ( #102 ) ) GLOBAL_UNIT_ASSIGNED_CONTEXT ( ( #48, #103, #132 ) ) REPRESENTATION_CONTEXT ( 'NONE', 'WORKASPACE' ) );
#115 = CARTESIAN_POINT ( 'NONE',  ( 0.0000000000000000000, 0.0000000000000000000, -1.264999999999999700 ) ) ;
#116 = CIRCLE ( 'NONE', #101, 4.500000000000000900 ) ;
#117 = FILL_AREA_STYLE_COLOUR ( '', #98 ) ;
#118 = DIRECTION ( 'NONE',  ( 1.000000000000000000, 0.0000000000000000000, 0.0000000000000000000 ) ) ;
#119 = DIRECTION ( 'NONE',  ( -0.0000000000000000000, -0.0000000000000000000, 1.000000000000000000 ) ) ;
#120 = CARTESIAN_POINT ( 'NONE',  ( -4.500000000000000900, 5.510728592200698600E-016, -1.264999999999999700 ) ) ;
#121 = CARTESIAN_POINT ( 'NONE',  ( 0.0000000000000000000, 0.0000000000000000000, 0.2299878575203759500 ) ) ;
#122 = AXIS2_PLACEMENT_3D ( 'NONE', #121, #113, #112 ) ;
#123 = CIRCLE ( 'NONE', #122, 4.500000000000000900 ) ;
#124 = DIRECTION ( 'NONE',  ( -0.0000000000000000000, -0.0000000000000000000, 1.000000000000000000 ) ) ;
#125 = VECTOR ( 'NONE', #124, 1000.000000000000000 ) ;
#126 = CARTESIAN_POINT ( 'NONE',  ( -4.500000000000000900, 5.510728592200698600E-016, 4.308132045400366600 ) ) ;
#127 =( LENGTH_UNIT ( ) NAMED_UNIT ( * ) SI_UNIT ( .MILLI., .METRE. ) );
#128 = MECHANICAL_DESIGN_GEOMETRIC_PRESENTATION_REPRESENTATION (  '', ( #130 ), #134 ) ;
#129 = PRESENTATION_LAYER_ASSIGNMENT (  '', '', ( #130 ) ) ;
#130 = STYLED_ITEM ( 'NONE', ( #131 ), #22 ) ;
#131 = PRESENTATION_STYLE_ASSIGNMENT (( #94 ) ) ;
#132 =( NAMED_UNIT ( * ) SI_UNIT ( $, .STERADIAN. ) SOLID_ANGLE_UNIT ( ) );
#133 = LINE ( 'NONE', #126, #125 ) ;
#134 =( GEOMETRIC_REPRESENTATION_CONTEXT ( 3 ) GLOBAL_UNCERTAINTY_ASSIGNED_CONTEXT ( ( #92 ) ) GLOBAL_UNIT_ASSIGNED_CONTEXT ( ( #127, #135, #93 ) ) REPRESENTATION_CONTEXT ( 'NONE', 'WORKASPACE' ) );
#135 =( NAMED_UNIT ( * ) PLANE_ANGLE_UNIT ( ) SI_UNIT ( $, .RADIAN. ) );
#136 = EDGE_LOOP ( 'NONE', ( #30, #34, #27, #31 ) ) ;
#137 = ADVANCED_FACE ( 'NONE', ( #192 ), #215, .F. ) ;
#138 = ORIENTED_EDGE ( 'NONE', *, *, #141, .F. ) ;
#139 = ORIENTED_EDGE ( 'NONE', *, *, #19, .F. ) ;
#140 = CLOSED_SHELL ( 'NONE', ( #10, #152, #7, #1, #137 ) ) ;
#141 = EDGE_CURVE ( 'NONE', #142, #15, #214, .T. ) ;
#142 = VERTEX_POINT ( 'NONE', #239 ) ;
#143 = VERTEX_POINT ( 'NONE', #238 ) ;
#144 = ORIENTED_EDGE ( 'NONE', *, *, #145, .F. ) ;
#145 = EDGE_CURVE ( 'NONE', #146, #143, #237, .T. ) ;
#146 = VERTEX_POINT ( 'NONE', #232 ) ;
#147 = ORIENTED_EDGE ( 'NONE', *, *, #148, .F. ) ;
#148 = EDGE_CURVE ( 'NONE', #149, #146, #231, .T. ) ;
#149 = VERTEX_POINT ( 'NONE', #226 ) ;
#150 = ORIENTED_EDGE ( 'NONE', *, *, #151, .F. ) ;
#151 = EDGE_CURVE ( 'NONE', #142, #149, #224, .T. ) ;
#152 = ADVANCED_FACE ( 'NONE', ( #220 ), #183, .T. ) ;
#153 = CARTESIAN_POINT ( 'NONE',  ( 0.0000000000000000000, 0.0000000000000000000, 0.0000000000000000000 ) ) ;
#154 = DIRECTION ( 'NONE',  ( 0.0000000000000000000, 0.0000000000000000000, 1.000000000000000000 ) ) ;
#155 = SHAPE_DEFINITION_REPRESENTATION ( #252, #168 ) ;
#156 = DIRECTION ( 'NONE',  ( 1.000000000000000000, 0.0000000000000000000, 0.0000000000000000000 ) ) ;
#157 =( GEOMETRIC_REPRESENTATION_CONTEXT ( 3 ) GLOBAL_UNCERTAINTY_ASSIGNED_CONTEXT ( ( #158 ) ) GLOBAL_UNIT_ASSIGNED_CONTEXT ( ( #174, #173, #172 ) ) REPRESENTATION_CONTEXT ( 'NONE', 'WORKASPACE' ) );
#158 = UNCERTAINTY_MEASURE_WITH_UNIT (LENGTH_MEASURE( 1.000000000000000100E-005 ), #174, 'distance_accuracy_value', 'NONE');
#159 = STYLED_ITEM ( 'NONE', ( #160 ), #168 ) ;
#160 = PRESENTATION_STYLE_ASSIGNMENT (( #161 ) ) ;
#161 = SURFACE_STYLE_USAGE ( .BOTH. , #162 ) ;
#162 = SURFACE_SIDE_STYLE ('',( #163 ) ) ;
#163 = SURFACE_STYLE_FILL_AREA ( #164 ) ;
#164 = FILL_AREA_STYLE ('',( #165 ) ) ;
#165 = FILL_AREA_STYLE_COLOUR ( '', #166 ) ;
#166 = COLOUR_RGB ( '',0.7960784313725489700, 0.8235294117647058400, 0.9372549019607843100 ) ;
#167 = APPLICATION_CONTEXT ( 'automotive_design' ) ;
#168 = ADVANCED_BREP_SHAPE_REPRESENTATION ( '4567-E0W', ( #22, #184 ), #169 ) ;
#169 =( GEOMETRIC_REPRESENTATION_CONTEXT ( 3 ) GLOBAL_UNCERTAINTY_ASSIGNED_CONTEXT ( ( #170 ) ) GLOBAL_UNIT_ASSIGNED_CONTEXT ( ( #178, #177, #171 ) ) REPRESENTATION_CONTEXT ( 'NONE', 'WORKASPACE' ) );
#170 = UNCERTAINTY_MEASURE_WITH_UNIT (LENGTH_MEASURE( 1.000000000000000100E-005 ), #178, 'distance_accuracy_value', 'NONE');
#171 =( NAMED_UNIT ( * ) SI_UNIT ( $, .STERADIAN. ) SOLID_ANGLE_UNIT ( ) );
#172 =( NAMED_UNIT ( * ) SI_UNIT ( $, .STERADIAN. ) SOLID_ANGLE_UNIT ( ) );
#173 =( NAMED_UNIT ( * ) PLANE_ANGLE_UNIT ( ) SI_UNIT ( $, .RADIAN. ) );
#174 =( LENGTH_UNIT ( ) NAMED_UNIT ( * ) SI_UNIT ( .MILLI., .METRE. ) );
#175 = MECHANICAL_DESIGN_GEOMETRIC_PRESENTATION_REPRESENTATION (  '', ( #159 ), #157 ) ;
#176 = PRESENTATION_LAYER_ASSIGNMENT (  '', '', ( #159 ) ) ;
#177 =( NAMED_UNIT ( * ) PLANE_ANGLE_UNIT ( ) SI_UNIT ( $, .RADIAN. ) );
#178 =( LENGTH_UNIT ( ) NAMED_UNIT ( * ) SI_UNIT ( .MILLI., .METRE. ) );
#179 = DIRECTION ( 'NONE',  ( 0.0000000000000000000, 1.000000000000000000, 0.0000000000000000000 ) ) ;
#180 = DIRECTION ( 'NONE',  ( -1.000000000000000000, 0.0000000000000000000, 0.0000000000000000000 ) ) ;
#181 = CARTESIAN_POINT ( 'NONE',  ( 0.0000000000000000000, 0.0000000000000000000, -9.035000000000000100 ) ) ;
#182 = AXIS2_PLACEMENT_3D ( 'NONE', #181, #180, #179 ) ;
#183 = SPHERICAL_SURFACE ( 'NONE', #182, 10.30000000000000100 ) ;
#184 = AXIS2_PLACEMENT_3D ( 'NONE', #153, #154, #156 ) ;
#185 =( NAMED_UNIT ( * ) PLANE_ANGLE_UNIT ( ) SI_UNIT ( $, .RADIAN. ) );
#186 =( LENGTH_UNIT ( ) NAMED_UNIT ( * ) SI_UNIT ( .MILLI., .METRE. ) );
#187 = CIRCLE ( 'NONE', #251, 10.29999999999999900 ) ;
#188 = SURFACE_STYLE_FILL_AREA ( #189 ) ;
#189 = FILL_AREA_STYLE ('',( #190 ) ) ;
#190 = FILL_AREA_STYLE_COLOUR ( '', #191 ) ;
#191 = COLOUR_RGB ( '',0.9568627450980391500, 0.9490196078431372100, 0.9607843137254902200 ) ;
#192 = FACE_OUTER_BOUND ( 'NONE', #2, .T. ) ;
#193 = CARTESIAN_POINT ( 'NONE',  ( 0.0000000000000000000, 6.306722722185243100E-016, 1.265000000000000600 ) ) ;
#194 = CARTESIAN_POINT ( 'NONE',  ( -5.510728592200697700E-016, -4.500000000000000000, 0.2299878575203755400 ) ) ;
#195 =( GEOMETRIC_REPRESENTATION_CONTEXT ( 3 ) GLOBAL_UNCERTAINTY_ASSIGNED_CONTEXT ( ( #196 ) ) GLOBAL_UNIT_ASSIGNED_CONTEXT ( ( #199, #198, #197 ) ) REPRESENTATION_CONTEXT ( 'NONE', 'WORKASPACE' ) );
#196 = UNCERTAINTY_MEASURE_WITH_UNIT (LENGTH_MEASURE( 1.000000000000000100E-005 ), #199, 'distance_accuracy_value', 'NONE');
#197 =( NAMED_UNIT ( * ) SI_UNIT ( $, .STERADIAN. ) SOLID_ANGLE_UNIT ( ) );
#198 =( NAMED_UNIT ( * ) PLANE_ANGLE_UNIT ( ) SI_UNIT ( $, .RADIAN. ) );
#199 =( LENGTH_UNIT ( ) NAMED_UNIT ( * ) SI_UNIT ( .MILLI., .METRE. ) );
#200 = MECHANICAL_DESIGN_GEOMETRIC_PRESENTATION_REPRESENTATION (  '', ( #202 ), #195 ) ;
#201 = PRESENTATION_LAYER_ASSIGNMENT (  '', '', ( #202 ) ) ;
#202 = STYLED_ITEM ( 'NONE', ( #203 ), #152 ) ;
#203 = PRESENTATION_STYLE_ASSIGNMENT (( #204 ) ) ;
#204 = SURFACE_STYLE_USAGE ( .BOTH. , #205 ) ;
#205 = SURFACE_SIDE_STYLE ('',( #206 ) ) ;
#206 = SURFACE_STYLE_FILL_AREA ( #207 ) ;
#207 = FILL_AREA_STYLE ('',( #225 ) ) ;
#208 = MECHANICAL_DESIGN_GEOMETRIC_PRESENTATION_REPRESENTATION (  '', ( #210 ), #216 ) ;
#209 = PRESENTATION_LAYER_ASSIGNMENT (  '', '', ( #210 ) ) ;
#210 = STYLED_ITEM ( 'NONE', ( #211 ), #137 ) ;
#211 = PRESENTATION_STYLE_ASSIGNMENT (( #212 ) ) ;
#212 = SURFACE_STYLE_USAGE ( .BOTH. , #213 ) ;
#213 = SURFACE_SIDE_STYLE ('',( #188 ) ) ;
#214 = CIRCLE ( 'NONE', #243, 4.500000000000000900 ) ;
#215 = PLANE ( 'NONE',  #247 ) ;
#216 =( GEOMETRIC_REPRESENTATION_CONTEXT ( 3 ) GLOBAL_UNCERTAINTY_ASSIGNED_CONTEXT ( ( #217 ) ) GLOBAL_UNIT_ASSIGNED_CONTEXT ( ( #186, #185, #218 ) ) REPRESENTATION_CONTEXT ( 'NONE', 'WORKASPACE' ) );
#217 = UNCERTAINTY_MEASURE_WITH_UNIT (LENGTH_MEASURE( 1.000000000000000100E-005 ), #186, 'distance_accuracy_value', 'NONE');
#218 =( NAMED_UNIT ( * ) SI_UNIT ( $, .STERADIAN. ) SOLID_ANGLE_UNIT ( ) );
#219 = COLOUR_RGB ( '',0.9568627450980391500, 0.9490196078431372100, 0.9607843137254902200 ) ;
#220 = FACE_OUTER_BOUND ( 'NONE', #136, .T. ) ;
#221 = DIRECTION ( 'NONE',  ( -0.0000000000000000000, -0.0000000000000000000, 1.000000000000000000 ) ) ;
#222 = VECTOR ( 'NONE', #221, 1000.000000000000000 ) ;
#223 = CARTESIAN_POINT ( 'NONE',  ( 4.500000000000000900, 0.0000000000000000000, 4.308132045400366600 ) ) ;
#224 = LINE ( 'NONE', #223, #222 ) ;
#225 = FILL_AREA_STYLE_COLOUR ( '', #219 ) ;
#226 = CARTESIAN_POINT ( 'NONE',  ( 4.500000000000000900, 0.0000000000000000000, 0.2299878575203759500 ) ) ;
#227 = DIRECTION ( 'NONE',  ( 1.000000000000000000, 0.0000000000000000000, 0.0000000000000000000 ) ) ;
#228 = DIRECTION ( 'NONE',  ( -0.0000000000000000000, -0.0000000000000000000, 1.000000000000000000 ) ) ;
#229 = CARTESIAN_POINT ( 'NONE',  ( 0.0000000000000000000, 0.0000000000000000000, 0.2299878575203759500 ) ) ;
#230 = AXIS2_PLACEMENT_3D ( 'NONE', #229, #228, #227 ) ;
#231 = CIRCLE ( 'NONE', #230, 4.500000000000000900 ) ;
#232 = CARTESIAN_POINT ( 'NONE',  ( 0.0000000000000000000, 4.500000000000000000, 0.2299878575203755400 ) ) ;
#233 = DIRECTION ( 'NONE',  ( 1.000000000000000000, 0.0000000000000000000, 0.0000000000000000000 ) ) ;
#234 = DIRECTION ( 'NONE',  ( -0.0000000000000000000, -0.0000000000000000000, 1.000000000000000000 ) ) ;
#235 = CARTESIAN_POINT ( 'NONE',  ( 0.0000000000000000000, 0.0000000000000000000, 0.2299878575203759500 ) ) ;
#236 = AXIS2_PLACEMENT_3D ( 'NONE', #235, #234, #233 ) ;
#237 = CIRCLE ( 'NONE', #236, 4.500000000000000900 ) ;
#238 = CARTESIAN_POINT ( 'NONE',  ( -4.500000000000000900, 5.510728592200698600E-016, 0.2299878575203759500 ) ) ;
#239 = CARTESIAN_POINT ( 'NONE',  ( 4.500000000000000900, 0.0000000000000000000, -1.264999999999999700 ) ) ;
#240 = DIRECTION ( 'NONE',  ( 1.000000000000000000, 0.0000000000000000000, 0.0000000000000000000 ) ) ;
#241 = DIRECTION ( 'NONE',  ( -0.0000000000000000000, -0.0000000000000000000, 1.000000000000000000 ) ) ;
#242 = CARTESIAN_POINT ( 'NONE',  ( 0.0000000000000000000, 0.0000000000000000000, -1.264999999999999700 ) ) ;
#243 = AXIS2_PLACEMENT_3D ( 'NONE', #242, #241, #240 ) ;
#244 = DIRECTION ( 'NONE',  ( 1.000000000000000000, 0.0000000000000000000, 0.0000000000000000000 ) ) ;
#245 = DIRECTION ( 'NONE',  ( 0.0000000000000000000, -0.0000000000000000000, 1.000000000000000000 ) ) ;
#246 = CARTESIAN_POINT ( 'NONE',  ( 0.0000000000000000000, 4.647534602764203900E-016, -1.264999999999999700 ) ) ;
#247 = AXIS2_PLACEMENT_3D ( 'NONE', #246, #245, #244 ) ;
#248 = DIRECTION ( 'NONE',  ( 0.0000000000000000000, 0.0000000000000000000, -1.000000000000000000 ) ) ;
#249 = DIRECTION ( 'NONE',  ( 1.000000000000000000, 0.0000000000000000000, 0.0000000000000000000 ) ) ;
#250 = CARTESIAN_POINT ( 'NONE',  ( 0.0000000000000000000, 0.0000000000000000000, -9.035000000000000100 ) ) ;
#251 = AXIS2_PLACEMENT_3D ( 'NONE', #250, #249, #248 ) ;
#252 = PRODUCT_DEFINITION_SHAPE ( 'NONE', 'NONE',  #255 ) ;
#253 = PRODUCT_RELATED_PRODUCT_CATEGORY ( 'part', '', ( #259 ) ) ;
#254 = PRODUCT_DEFINITION_FORMATION_WITH_SPECIFIED_SOURCE ( 'ANY', '', #259, .NOT_KNOWN. ) ;
#255 = PRODUCT_DEFINITION ( 'UNKNOWN', '', #254, #256 ) ;
#256 = PRODUCT_DEFINITION_CONTEXT ( 'detailed design', #258, 'design' ) ;
#257 = APPLICATION_PROTOCOL_DEFINITION ( 'draft international standard', 'automotive_design', 1998, #258 ) ;
#258 = APPLICATION_CONTEXT ( 'automotive_design' ) ;
#259 = PRODUCT ( '4567-E0W', '4567-E0W', '', ( #260 ) ) ;
#260 = PRODUCT_CONTEXT ( 'NONE', #167, 'mechanical' ) ;
#261 = APPLICATION_PROTOCOL_DEFINITION ( 'draft international standard', 'automotive_design', 1998, #167 ) ;
ENDSEC;
END-ISO-10303-21;
