ISO-10303-21;
HEADER;
FILE_DESCRIPTION (( 'STEP AP203' ),
    '1' );
FILE_NAME ('Web Model 17670_17670.step',
    '2021-08-09T16:41:03',
    ( '' ),
    ( '' ),
    'SwSTEP 2.0',
    'SolidWorks 2018',
    '' );
FILE_SCHEMA (( 'CONFIG_CONTROL_DESIGN' ));
ENDSEC;

DATA;
#1 = CIRCLE ( 'NONE', #26, 62.50000000000000000 ) ;
#2 = VECTOR ( 'NONE', #49, 1000.000000000000000 ) ;
#3 =( GEOMETRIC_REPRESENTATION_CONTEXT ( 3 ) GLOBAL_UNCERTAINTY_ASSIGNED_CONTEXT ( ( #63 ) ) GLOBAL_UNIT_ASSIGNED_CONTEXT ( ( #111, #91, #143 ) ) REPRESENTATION_CONTEXT ( 'NONE', 'WORKASPACE' ) );
#4 = FACE_OUTER_BOUND ( 'NONE', #40, .T. ) ;
#5 = ORIENTED_EDGE ( 'NONE', *, *, #60, .T. ) ;
#6 = CARTESIAN_POINT ( 'NONE',  ( 0.000000000000000000, 0.000000000000000000, 6.000000000000000000 ) ) ;
#7 = EDGE_CURVE ( 'NONE', #9, #48, #1, .T. ) ;
#8 = DIRECTION ( 'NONE',  ( 1.000000000000000000, 0.000000000000000000, 0.000000000000000000 ) ) ;
#9 = VERTEX_POINT ( 'NONE', #112 ) ;
#10 = ADVANCED_FACE ( 'NONE', ( #152 ), #154, .F. ) ;
#11 = CIRCLE ( 'NONE', #167, 62.50000000000000000 ) ;
#12 = ORIENTED_EDGE ( 'NONE', *, *, #7, .F. ) ;
#13 = CALENDAR_DATE ( 2021, 9, 8 ) ;
#14 = VERTEX_POINT ( 'NONE', #31 ) ;
#15 = EDGE_CURVE ( 'NONE', #48, #9, #11, .T. ) ;
#16 = PRODUCT ( 'Web Model 17670_17670', 'Web Model 17670_17670', '', ( #157 ) ) ;
#17 = LOCAL_TIME ( 12, 41, 3.000000000000000000, #29 ) ;
#18 = ORIENTED_EDGE ( 'NONE', *, *, #171, .T. ) ;
#19 = APPROVAL_STATUS ( 'not_yet_approved' ) ;
#20 = PERSON_AND_ORGANIZATION ( #163, #107 ) ;
#21 = PRODUCT_RELATED_PRODUCT_CATEGORY ( 'detail', '', ( #16 ) ) ;
#22 = DIRECTION ( 'NONE',  ( 1.000000000000000000, 0.000000000000000000, 0.000000000000000000 ) ) ;
#23 = DIRECTION ( 'NONE',  ( -0.000000000000000000, -0.000000000000000000, -1.000000000000000000 ) ) ;
#24 = COORDINATED_UNIVERSAL_TIME_OFFSET ( 5, 0, .BEHIND. ) ;
#25 = AXIS2_PLACEMENT_3D ( 'NONE', #6, #102, #74 ) ;
#26 = AXIS2_PLACEMENT_3D ( 'NONE', #53, #85, #56 ) ;
#27 = CC_DESIGN_APPROVAL ( #39, ( #122 ) ) ;
#28 = LOCAL_TIME ( 12, 41, 3.000000000000000000, #71 ) ;
#29 = COORDINATED_UNIVERSAL_TIME_OFFSET ( 5, 0, .BEHIND. ) ;
#30 = CC_DESIGN_PERSON_AND_ORGANIZATION_ASSIGNMENT ( #50, #34, ( #122 ) ) ;
#31 = CARTESIAN_POINT ( 'NONE',  ( -62.50000000000000000, 0.000000000000000000, 6.000000000000000000 ) ) ;
#32 = CC_DESIGN_APPROVAL ( #109, ( #133 ) ) ;
#33 = EDGE_CURVE ( 'NONE', #110, #14, #117, .T. ) ;
#34 = PERSON_AND_ORGANIZATION_ROLE ( 'creator' ) ;
#35 = APPLICATION_CONTEXT ( 'configuration controlled 3d designs of mechanical parts and assemblies' ) ;
#36 = APPROVAL_DATE_TIME ( #165, #149 ) ;
#37 = PRODUCT_DEFINITION_SHAPE ( 'NONE', 'NONE',  #124 ) ;
#38 = CIRCLE ( 'NONE', #25, 62.50000000000000000 ) ;
#39 = APPROVAL ( #140, 'UNSPECIFIED' ) ;
#40 = EDGE_LOOP ( 'NONE', ( #77, #41 ) ) ;
#41 = ORIENTED_EDGE ( 'NONE', *, *, #33, .T. ) ;
#42 = CC_DESIGN_PERSON_AND_ORGANIZATION_ASSIGNMENT ( #164, #45, ( #122 ) ) ;
#43 = ORIENTED_EDGE ( 'NONE', *, *, #7, .T. ) ;
#44 = FACE_OUTER_BOUND ( 'NONE', #72, .T. ) ;
#45 = PERSON_AND_ORGANIZATION_ROLE ( 'design_supplier' ) ;
#46 = EDGE_LOOP ( 'NONE', ( #12, #69 ) ) ;
#47 = PERSON_AND_ORGANIZATION_ROLE ( 'creator' ) ;
#48 = VERTEX_POINT ( 'NONE', #138 ) ;
#49 = DIRECTION ( 'NONE',  ( -0.000000000000000000, -0.000000000000000000, -1.000000000000000000 ) ) ;
#50 = PERSON_AND_ORGANIZATION ( #163, #107 ) ;
#51 = MANIFOLD_SOLID_BREP ( 'Boss-Extrude1', #96 ) ;
#52 = PERSON_AND_ORGANIZATION ( #163, #107 ) ;
#53 = CARTESIAN_POINT ( 'NONE',  ( 0.000000000000000000, 0.000000000000000000, 0.000000000000000000 ) ) ;
#54 = PERSON_AND_ORGANIZATION ( #163, #107 ) ;
#55 = ORIENTED_EDGE ( 'NONE', *, *, #33, .F. ) ;
#56 = DIRECTION ( 'NONE',  ( 1.000000000000000000, 0.000000000000000000, 0.000000000000000000 ) ) ;
#57 = APPROVAL_STATUS ( 'not_yet_approved' ) ;
#58 = DATE_TIME_ROLE ( 'classification_date' ) ;
#59 = LOCAL_TIME ( 12, 41, 3.000000000000000000, #155 ) ;
#60 = EDGE_CURVE ( 'NONE', #14, #9, #106, .T. ) ;
#61 = DIRECTION ( 'NONE',  ( 1.000000000000000000, 0.000000000000000000, 0.000000000000000000 ) ) ;
#62 = DIRECTION ( 'NONE',  ( -0.000000000000000000, -0.000000000000000000, -1.000000000000000000 ) ) ;
#63 = UNCERTAINTY_MEASURE_WITH_UNIT (LENGTH_MEASURE( 1.000000000000000082E-05 ), #111, 'distance_accuracy_value', 'NONE');
#64 = DIRECTION ( 'NONE',  ( 0.000000000000000000, 0.000000000000000000, 1.000000000000000000 ) ) ;
#65 = FACE_OUTER_BOUND ( 'NONE', #82, .T. ) ;
#66 = APPROVAL_PERSON_ORGANIZATION ( #81, #109, #73 ) ;
#67 = CALENDAR_DATE ( 2021, 9, 8 ) ;
#68 = CYLINDRICAL_SURFACE ( 'NONE', #70, 62.50000000000000000 ) ;
#69 = ORIENTED_EDGE ( 'NONE', *, *, #15, .F. ) ;
#70 = AXIS2_PLACEMENT_3D ( 'NONE', #144, #23, #148 ) ;
#71 = COORDINATED_UNIVERSAL_TIME_OFFSET ( 5, 0, .BEHIND. ) ;
#72 = EDGE_LOOP ( 'NONE', ( #135, #141, #5, #43 ) ) ;
#73 = APPROVAL_ROLE ( '' ) ;
#74 = DIRECTION ( 'NONE',  ( 1.000000000000000000, 0.000000000000000000, 0.000000000000000000 ) ) ;
#75 = APPLICATION_PROTOCOL_DEFINITION ( 'international standard', 'config_control_design', 1994, #35 ) ;
#76 = CARTESIAN_POINT ( 'NONE',  ( 0.000000000000000000, 0.000000000000000000, 0.000000000000000000 ) ) ;
#77 = ORIENTED_EDGE ( 'NONE', *, *, #151, .T. ) ;
#78 = PLANE ( 'NONE',  #166 ) ;
#79 = ADVANCED_FACE ( 'NONE', ( #4 ), #78, .T. ) ;
#80 = ORIENTED_EDGE ( 'NONE', *, *, #15, .T. ) ;
#81 = PERSON_AND_ORGANIZATION ( #163, #107 ) ;
#82 = EDGE_LOOP ( 'NONE', ( #55, #18, #80, #153 ) ) ;
#83 = SHAPE_DEFINITION_REPRESENTATION ( #37, #128 ) ;
#84 = AXIS2_PLACEMENT_3D ( 'NONE', #173, #129, #8 ) ;
#85 = DIRECTION ( 'NONE',  ( 0.000000000000000000, 0.000000000000000000, 1.000000000000000000 ) ) ;
#86 = CARTESIAN_POINT ( 'NONE',  ( 0.000000000000000000, 0.000000000000000000, 0.000000000000000000 ) ) ;
#87 = APPROVAL_DATE_TIME ( #174, #39 ) ;
#88 = CARTESIAN_POINT ( 'NONE',  ( 62.50000000000000000, 7.654042494670957804E-15, 6.000000000000000000 ) ) ;
#89 = AXIS2_PLACEMENT_3D ( 'NONE', #175, #62, #170 ) ;
#90 = LOCAL_TIME ( 12, 41, 3.000000000000000000, #160 ) ;
#91 =( NAMED_UNIT ( * ) PLANE_ANGLE_UNIT ( ) SI_UNIT ( $, .RADIAN. ) );
#92 = DIRECTION ( 'NONE',  ( 1.000000000000000000, 0.000000000000000000, -0.000000000000000000 ) ) ;
#93 = APPLICATION_PROTOCOL_DEFINITION ( 'international standard', 'config_control_design', 1994, #114 ) ;
#94 = DIRECTION ( 'NONE',  ( 0.000000000000000000, 0.000000000000000000, 1.000000000000000000 ) ) ;
#95 = ADVANCED_FACE ( 'NONE', ( #44 ), #68, .T. ) ;
#96 = CLOSED_SHELL ( 'NONE', ( #131, #95, #79, #10 ) ) ;
#97 = PERSON_AND_ORGANIZATION ( #163, #107 ) ;
#98 = CC_DESIGN_DATE_AND_TIME_ASSIGNMENT ( #125, #172, ( #124 ) ) ;
#99 = DIRECTION ( 'NONE',  ( 0.000000000000000000, 0.000000000000000000, 1.000000000000000000 ) ) ;
#100 = DIRECTION ( 'NONE',  ( -0.000000000000000000, -0.000000000000000000, -1.000000000000000000 ) ) ;
#101 = DIRECTION ( 'NONE',  ( 0.000000000000000000, 0.000000000000000000, 1.000000000000000000 ) ) ;
#102 = DIRECTION ( 'NONE',  ( 0.000000000000000000, 0.000000000000000000, 1.000000000000000000 ) ) ;
#103 = CC_DESIGN_PERSON_AND_ORGANIZATION_ASSIGNMENT ( #97, #47, ( #124 ) ) ;
#104 = LOCAL_TIME ( 12, 41, 3.000000000000000000, #24 ) ;
#105 = CYLINDRICAL_SURFACE ( 'NONE', #89, 62.50000000000000000 ) ;
#106 = LINE ( 'NONE', #118, #2 ) ;
#107 = ORGANIZATION ( 'UNSPECIFIED', 'UNSPECIFIED', '' ) ;
#108 = AXIS2_PLACEMENT_3D ( 'NONE', #86, #99, #156 ) ;
#109 = APPROVAL ( #57, 'UNSPECIFIED' ) ;
#110 = VERTEX_POINT ( 'NONE', #146 ) ;
#111 =( LENGTH_UNIT ( ) NAMED_UNIT ( * ) SI_UNIT ( .MILLI., .METRE. ) );
#112 = CARTESIAN_POINT ( 'NONE',  ( -62.50000000000000000, 0.000000000000000000, 0.000000000000000000 ) ) ;
#113 = CC_DESIGN_DATE_AND_TIME_ASSIGNMENT ( #120, #58, ( #133 ) ) ;
#114 = APPLICATION_CONTEXT ( 'configuration controlled 3d designs of mechanical parts and assemblies' ) ;
#115 = CARTESIAN_POINT ( 'NONE',  ( 0.000000000000000000, 0.000000000000000000, 6.000000000000000000 ) ) ;
#116 = CC_DESIGN_PERSON_AND_ORGANIZATION_ASSIGNMENT ( #130, #169, ( #16 ) ) ;
#117 = CIRCLE ( 'NONE', #84, 62.50000000000000000 ) ;
#118 = CARTESIAN_POINT ( 'NONE',  ( -62.50000000000000000, 0.000000000000000000, 6.000000000000000000 ) ) ;
#119 = DESIGN_CONTEXT ( 'detailed design', #114, 'design' ) ;
#120 = DATE_AND_TIME ( #13, #90 ) ;
#121 = CALENDAR_DATE ( 2021, 9, 8 ) ;
#122 = PRODUCT_DEFINITION_FORMATION_WITH_SPECIFIED_SOURCE ( 'ANY', '', #16, .NOT_KNOWN. ) ;
#123 = APPROVAL_PERSON_ORGANIZATION ( #54, #39, #139 ) ;
#124 = PRODUCT_DEFINITION ( 'UNKNOWN', '', #122, #119 ) ;
#125 = DATE_AND_TIME ( #161, #104 ) ;
#126 = APPROVAL_ROLE ( '' ) ;
#127 = SECURITY_CLASSIFICATION_LEVEL ( 'unclassified' ) ;
#128 = ADVANCED_BREP_SHAPE_REPRESENTATION ( 'Web Model 17670_17670', ( #51, #162 ), #3 ) ;
#129 = DIRECTION ( 'NONE',  ( 0.000000000000000000, 0.000000000000000000, 1.000000000000000000 ) ) ;
#130 = PERSON_AND_ORGANIZATION ( #163, #107 ) ;
#131 = ADVANCED_FACE ( 'NONE', ( #65 ), #105, .T. ) ;
#132 = DATE_AND_TIME ( #168, #17 ) ;
#133 = SECURITY_CLASSIFICATION ( '', '', #127 ) ;
#134 = CC_DESIGN_APPROVAL ( #149, ( #124 ) ) ;
#135 = ORIENTED_EDGE ( 'NONE', *, *, #171, .F. ) ;
#136 = APPROVAL_PERSON_ORGANIZATION ( #20, #149, #126 ) ;
#137 = LINE ( 'NONE', #88, #147 ) ;
#138 = CARTESIAN_POINT ( 'NONE',  ( 62.50000000000000000, 7.654042494670957804E-15, 0.000000000000000000 ) ) ;
#139 = APPROVAL_ROLE ( '' ) ;
#140 = APPROVAL_STATUS ( 'not_yet_approved' ) ;
#141 = ORIENTED_EDGE ( 'NONE', *, *, #151, .F. ) ;
#142 = PERSON_AND_ORGANIZATION_ROLE ( 'classification_officer' ) ;
#143 =( NAMED_UNIT ( * ) SI_UNIT ( $, .STERADIAN. ) SOLID_ANGLE_UNIT ( ) );
#144 = CARTESIAN_POINT ( 'NONE',  ( 0.000000000000000000, 0.000000000000000000, 6.000000000000000000 ) ) ;
#145 = CARTESIAN_POINT ( 'NONE',  ( 0.000000000000000000, 0.000000000000000000, 0.000000000000000000 ) ) ;
#146 = CARTESIAN_POINT ( 'NONE',  ( 62.50000000000000000, 7.654042494670957804E-15, 6.000000000000000000 ) ) ;
#147 = VECTOR ( 'NONE', #100, 1000.000000000000000 ) ;
#148 = DIRECTION ( 'NONE',  ( -1.000000000000000000, 0.000000000000000000, 0.000000000000000000 ) ) ;
#149 = APPROVAL ( #19, 'UNSPECIFIED' ) ;
#150 = CC_DESIGN_PERSON_AND_ORGANIZATION_ASSIGNMENT ( #52, #142, ( #133 ) ) ;
#151 = EDGE_CURVE ( 'NONE', #14, #110, #38, .T. ) ;
#152 = FACE_OUTER_BOUND ( 'NONE', #46, .T. ) ;
#153 = ORIENTED_EDGE ( 'NONE', *, *, #60, .F. ) ;
#154 = PLANE ( 'NONE',  #108 ) ;
#155 = COORDINATED_UNIVERSAL_TIME_OFFSET ( 5, 0, .BEHIND. ) ;
#156 = DIRECTION ( 'NONE',  ( 1.000000000000000000, 0.000000000000000000, -0.000000000000000000 ) ) ;
#157 = MECHANICAL_CONTEXT ( 'NONE', #35, 'mechanical' ) ;
#158 = APPROVAL_DATE_TIME ( #132, #109 ) ;
#159 = CC_DESIGN_SECURITY_CLASSIFICATION ( #133, ( #122 ) ) ;
#160 = COORDINATED_UNIVERSAL_TIME_OFFSET ( 5, 0, .BEHIND. ) ;
#161 = CALENDAR_DATE ( 2021, 9, 8 ) ;
#162 = AXIS2_PLACEMENT_3D ( 'NONE', #145, #64, #61 ) ;
#163 = PERSON ( 'UNSPECIFIED', 'UNSPECIFIED', 'UNSPECIFIED', ('UNSPECIFIED'), ('UNSPECIFIED'), ('UNSPECIFIED') ) ;
#164 = PERSON_AND_ORGANIZATION ( #163, #107 ) ;
#165 = DATE_AND_TIME ( #121, #28 ) ;
#166 = AXIS2_PLACEMENT_3D ( 'NONE', #115, #101, #92 ) ;
#167 = AXIS2_PLACEMENT_3D ( 'NONE', #76, #94, #22 ) ;
#168 = CALENDAR_DATE ( 2021, 9, 8 ) ;
#169 = PERSON_AND_ORGANIZATION_ROLE ( 'design_owner' ) ;
#170 = DIRECTION ( 'NONE',  ( -1.000000000000000000, 0.000000000000000000, 0.000000000000000000 ) ) ;
#171 = EDGE_CURVE ( 'NONE', #110, #48, #137, .T. ) ;
#172 = DATE_TIME_ROLE ( 'creation_date' ) ;
#173 = CARTESIAN_POINT ( 'NONE',  ( 0.000000000000000000, 0.000000000000000000, 6.000000000000000000 ) ) ;
#174 = DATE_AND_TIME ( #67, #59 ) ;
#175 = CARTESIAN_POINT ( 'NONE',  ( 0.000000000000000000, 0.000000000000000000, 6.000000000000000000 ) ) ;
ENDSEC;
END-ISO-10303-21;
