ISO-10303-21;
HEADER;
FILE_DESCRIPTION (( 'STEP AP214' ),
    '1' );
FILE_NAME ('3451-E0W.STEP',
    '2009-12-21T16:59:32',
    ( ' ' ),
    ( ' ' ),
    'SwSTEP 2.0',
    'SolidWorks 2009',
    '' );
FILE_SCHEMA (( 'AUTOMOTIVE_DESIGN' ));
ENDSEC;

DATA;
#1 = UNCERTAINTY_MEASURE_WITH_UNIT (LENGTH_MEASURE( 1.000000000000000100E-005 ), #140, 'distance_accuracy_value', 'NONE');
#2 =( NAMED_UNIT ( * ) PLANE_ANGLE_UNIT ( ) SI_UNIT ( $, .RADIAN. ) );
#3 =( LENGTH_UNIT ( ) NAMED_UNIT ( * ) SI_UNIT ( .MILLI., .METRE. ) );
#4 = ORIENTED_EDGE ( 'NONE', *, *, #25, .F. ) ;
#5 = ORIENTED_EDGE ( 'NONE', *, *, #14, .F. ) ;
#6 = EDGE_LOOP ( 'NONE', ( #83, #84, #96, #97 ) ) ;
#7 = ORIENTED_EDGE ( 'NONE', *, *, #74, .T. ) ;
#8 = ADVANCED_FACE ( 'NONE', ( #101 ), #79, .F. ) ;
#9 = EDGE_CURVE ( 'NONE', #58, #26, #61, .T. ) ;
#10 = EDGE_CURVE ( 'NONE', #93, #28, #52, .T. ) ;
#11 = EDGE_CURVE ( 'NONE', #76, #93, #48, .T. ) ;
#12 = ORIENTED_EDGE ( 'NONE', *, *, #9, .T. ) ;
#13 = ORIENTED_EDGE ( 'NONE', *, *, #14, .T. ) ;
#14 = EDGE_CURVE ( 'NONE', #26, #15, #44, .T. ) ;
#15 = VERTEX_POINT ( 'NONE', #172 ) ;
#16 = ORIENTED_EDGE ( 'NONE', *, *, #17, .T. ) ;
#17 = EDGE_CURVE ( 'NONE', #15, #18, #191, .T. ) ;
#18 = VERTEX_POINT ( 'NONE', #114 ) ;
#19 = ORIENTED_EDGE ( 'NONE', *, *, #11, .F. ) ;
#20 = EDGE_LOOP ( 'NONE', ( #4, #102, #7, #70, #69, #5 ) ) ;
#21 = ORIENTED_EDGE ( 'NONE', *, *, #22, .T. ) ;
#22 = EDGE_CURVE ( 'NONE', #75, #23, #107, .T. ) ;
#23 = VERTEX_POINT ( 'NONE', #105 ) ;
#24 = ORIENTED_EDGE ( 'NONE', *, *, #25, .T. ) ;
#25 = EDGE_CURVE ( 'NONE', #28, #26, #201, .T. ) ;
#26 = VERTEX_POINT ( 'NONE', #208 ) ;
#27 = ORIENTED_EDGE ( 'NONE', *, *, #10, .T. ) ;
#28 = VERTEX_POINT ( 'NONE', #212 ) ;
#29 = ADVANCED_FACE ( 'NONE', ( #211 ), #198, .T. ) ;
#30 = EDGE_LOOP ( 'NONE', ( #12, #13, #16, #82 ) ) ;
#31 = MECHANICAL_DESIGN_GEOMETRIC_PRESENTATION_REPRESENTATION (  '', ( #33 ), #81 ) ;
#32 = PRESENTATION_LAYER_ASSIGNMENT (  '', '', ( #33 ) ) ;
#33 = STYLED_ITEM ( 'NONE', ( #34 ), #8 ) ;
#34 = PRESENTATION_STYLE_ASSIGNMENT (( #35 ) ) ;
#35 = SURFACE_STYLE_USAGE ( .BOTH. , #36 ) ;
#36 = SURFACE_SIDE_STYLE ('',( #37 ) ) ;
#37 = SURFACE_STYLE_FILL_AREA ( #38 ) ;
#38 = FILL_AREA_STYLE ('',( #39 ) ) ;
#39 = FILL_AREA_STYLE_COLOUR ( '', #100 ) ;
#40 = EDGE_LOOP ( 'NONE', ( #77, #27, #24, #104, #89, #91 ) ) ;
#41 = MANIFOLD_SOLID_BREP ( 'NONE', #98 ) ;
#42 = ADVANCED_FACE ( 'NONE', ( #237 ), #127, .F. ) ;
#43 = EDGE_LOOP ( 'NONE', ( #73, #21, #99, #19 ) ) ;
#44 = CIRCLE ( 'NONE', #152, 12.69999999999999800 ) ;
#45 = DIRECTION ( 'NONE',  ( 1.000000000000000000, 0.0000000000000000000, 0.0000000000000000000 ) ) ;
#46 = DIRECTION ( 'NONE',  ( -0.0000000000000000000, -0.0000000000000000000, 1.000000000000000000 ) ) ;
#47 = AXIS2_PLACEMENT_3D ( 'NONE', #53, #46, #45 ) ;
#48 = CIRCLE ( 'NONE', #47, 12.69999999999999900 ) ;
#49 = DIRECTION ( 'NONE',  ( 1.000000000000000000, 0.0000000000000000000, 0.0000000000000000000 ) ) ;
#50 = DIRECTION ( 'NONE',  ( -0.0000000000000000000, -0.0000000000000000000, 1.000000000000000000 ) ) ;
#51 = AXIS2_PLACEMENT_3D ( 'NONE', #62, #50, #49 ) ;
#52 = CIRCLE ( 'NONE', #51, 12.69999999999999900 ) ;
#53 = CARTESIAN_POINT ( 'NONE',  ( 0.0000000000000000000, 0.0000000000000000000, -2.288321981976170000 ) ) ;
#54 = DIRECTION ( 'NONE',  ( 1.000000000000000000, 0.0000000000000000000, 0.0000000000000000000 ) ) ;
#55 = DIRECTION ( 'NONE',  ( -0.0000000000000000000, -0.0000000000000000000, 1.000000000000000000 ) ) ;
#56 = CARTESIAN_POINT ( 'NONE',  ( 0.0000000000000000000, 0.0000000000000000000, -0.3272881005335817100 ) ) ;
#57 = AXIS2_PLACEMENT_3D ( 'NONE', #56, #55, #54 ) ;
#58 = VERTEX_POINT ( 'NONE', #189 ) ;
#59 = UNCERTAINTY_MEASURE_WITH_UNIT (LENGTH_MEASURE( 1.000000000000000100E-005 ), #3, 'distance_accuracy_value', 'NONE');
#60 =( NAMED_UNIT ( * ) SI_UNIT ( $, .STERADIAN. ) SOLID_ANGLE_UNIT ( ) );
#61 = CIRCLE ( 'NONE', #57, 12.69999999999999800 ) ;
#62 = CARTESIAN_POINT ( 'NONE',  ( 0.0000000000000000000, 0.0000000000000000000, -2.288321981976170000 ) ) ;
#63 = DIRECTION ( 'NONE',  ( 0.0000000000000000000, 1.000000000000000000, 0.0000000000000000000 ) ) ;
#64 = DIRECTION ( 'NONE',  ( -1.000000000000000000, 0.0000000000000000000, 0.0000000000000000000 ) ) ;
#65 = CARTESIAN_POINT ( 'NONE',  ( 0.0000000000000000000, 0.0000000000000000000, -83.53167801802382500 ) ) ;
#66 = ORIENTED_EDGE ( 'NONE', *, *, #90, .T. ) ;
#67 = ADVANCED_FACE ( 'NONE', ( #184 ), #206, .T. ) ;
#68 = ORIENTED_EDGE ( 'NONE', *, *, #95, .T. ) ;
#69 = ORIENTED_EDGE ( 'NONE', *, *, #95, .F. ) ;
#70 = ORIENTED_EDGE ( 'NONE', *, *, #92, .T. ) ;
#71 = EDGE_CURVE ( 'NONE', #58, #18, #122, .T. ) ;
#72 = VERTEX_POINT ( 'NONE', #161 ) ;
#73 = ORIENTED_EDGE ( 'NONE', *, *, #74, .F. ) ;
#74 = EDGE_CURVE ( 'NONE', #75, #76, #160, .T. ) ;
#75 = VERTEX_POINT ( 'NONE', #155 ) ;
#76 = VERTEX_POINT ( 'NONE', #154 ) ;
#77 = ORIENTED_EDGE ( 'NONE', *, *, #11, .T. ) ;
#78 = EDGE_CURVE ( 'NONE', #93, #23, #224, .T. ) ;
#79 = SPHERICAL_SURFACE ( 'NONE', #80, 82.23000000000001800 ) ;
#80 = AXIS2_PLACEMENT_3D ( 'NONE', #65, #64, #63 ) ;
#81 =( GEOMETRIC_REPRESENTATION_CONTEXT ( 3 ) GLOBAL_UNCERTAINTY_ASSIGNED_CONTEXT ( ( #59 ) ) GLOBAL_UNIT_ASSIGNED_CONTEXT ( ( #3, #2, #60 ) ) REPRESENTATION_CONTEXT ( 'NONE', 'WORKASPACE' ) );
#82 = ORIENTED_EDGE ( 'NONE', *, *, #71, .F. ) ;
#83 = ORIENTED_EDGE ( 'NONE', *, *, #22, .F. ) ;
#84 = ORIENTED_EDGE ( 'NONE', *, *, #103, .F. ) ;
#85 = EDGE_LOOP ( 'NONE', ( #86, #68, #66, #94 ) ) ;
#86 = ORIENTED_EDGE ( 'NONE', *, *, #17, .F. ) ;
#87 = ADVANCED_FACE ( 'NONE', ( #219 ), #293, .T. ) ;
#88 = ADVANCED_FACE ( 'NONE', ( #269 ), #261, .T. ) ;
#89 = ORIENTED_EDGE ( 'NONE', *, *, #90, .F. ) ;
#90 = EDGE_CURVE ( 'NONE', #72, #58, #239, .T. ) ;
#91 = ORIENTED_EDGE ( 'NONE', *, *, #92, .F. ) ;
#92 = EDGE_CURVE ( 'NONE', #76, #72, #299, .T. ) ;
#93 = VERTEX_POINT ( 'NONE', #244 ) ;
#94 = ORIENTED_EDGE ( 'NONE', *, *, #71, .T. ) ;
#95 = EDGE_CURVE ( 'NONE', #15, #72, #243, .T. ) ;
#96 = ORIENTED_EDGE ( 'NONE', *, *, #10, .F. ) ;
#97 = ORIENTED_EDGE ( 'NONE', *, *, #78, .T. ) ;
#98 = CLOSED_SHELL ( 'NONE', ( #42, #88, #29, #67, #87, #8 ) ) ;
#99 = ORIENTED_EDGE ( 'NONE', *, *, #78, .F. ) ;
#100 = COLOUR_RGB ( '',0.9568627450980391500, 0.9490196078431372100, 0.9607843137254902200 ) ;
#101 = FACE_OUTER_BOUND ( 'NONE', #6, .T. ) ;
#102 = ORIENTED_EDGE ( 'NONE', *, *, #103, .T. ) ;
#103 = EDGE_CURVE ( 'NONE', #28, #75, #302, .T. ) ;
#104 = ORIENTED_EDGE ( 'NONE', *, *, #9, .F. ) ;
#105 = CARTESIAN_POINT ( 'NONE',  ( 0.0000000000000000000, 5.034969023740704300E-015, -1.301678018023819200 ) ) ;
#106 = AXIS2_PLACEMENT_3D ( 'NONE', #200, #166, #125 ) ;
#107 = CIRCLE ( 'NONE', #106, 82.23000000000001800 ) ;
#108 =( LENGTH_UNIT ( ) NAMED_UNIT ( * ) SI_UNIT ( .MILLI., .METRE. ) );
#109 = DIRECTION ( 'NONE',  ( 0.0000000000000000000, 1.000000000000000000, 0.0000000000000000000 ) ) ;
#110 = DIRECTION ( 'NONE',  ( -1.000000000000000000, 0.0000000000000000000, 0.0000000000000000000 ) ) ;
#111 = AXIS2_PLACEMENT_3D ( 'NONE', #197, #110, #109 ) ;
#112 = COLOUR_RGB ( '',0.7960784313725489700, 0.8235294117647058400, 0.9372549019607843100 ) ;
#113 = FILL_AREA_STYLE_COLOUR ( '', #112 ) ;
#114 = CARTESIAN_POINT ( 'NONE',  ( 0.0000000000000000000, 1.967942410592560500E-015, 2.288321981976170000 ) ) ;
#115 = DIRECTION ( 'NONE',  ( 0.0000000000000000000, 0.0000000000000000000, -1.000000000000000000 ) ) ;
#116 = DIRECTION ( 'NONE',  ( 1.000000000000000000, 0.0000000000000000000, 0.0000000000000000000 ) ) ;
#117 = CARTESIAN_POINT ( 'NONE',  ( 0.0000000000000000000, 0.0000000000000000000, -29.85167801802383300 ) ) ;
#118 = AXIS2_PLACEMENT_3D ( 'NONE', #117, #116, #115 ) ;
#119 = DIRECTION ( 'NONE',  ( 0.0000000000000000000, 1.000000000000000000, 0.0000000000000000000 ) ) ;
#120 = DIRECTION ( 'NONE',  ( -1.000000000000000000, 0.0000000000000000000, 0.0000000000000000000 ) ) ;
#121 = CARTESIAN_POINT ( 'NONE',  ( 0.0000000000000000000, 0.0000000000000000000, -29.85167801802383300 ) ) ;
#122 = CIRCLE ( 'NONE', #118, 32.14000000000000100 ) ;
#123 = UNCERTAINTY_MEASURE_WITH_UNIT (LENGTH_MEASURE( 1.000000000000000100E-005 ), #167, 'distance_accuracy_value', 'NONE');
#124 = DIRECTION ( 'NONE',  ( -1.224606353822377500E-016, -1.000000000000000000, 0.0000000000000000000 ) ) ;
#125 = DIRECTION ( 'NONE',  ( -1.224606353822377000E-016, -1.000000000000000000, 0.0000000000000000000 ) ) ;
#126 = CARTESIAN_POINT ( 'NONE',  ( 0.0000000000000000000, 0.0000000000000000000, -29.85167801802383300 ) ) ;
#127 = SPHERICAL_SURFACE ( 'NONE', #188, 82.23000000000001800 ) ;
#128 =( GEOMETRIC_REPRESENTATION_CONTEXT ( 3 ) GLOBAL_UNCERTAINTY_ASSIGNED_CONTEXT ( ( #202 ) ) GLOBAL_UNIT_ASSIGNED_CONTEXT ( ( #162, #204, #203 ) ) REPRESENTATION_CONTEXT ( 'NONE', 'WORKASPACE' ) );
#129 = AXIS2_PLACEMENT_3D ( 'NONE', #126, #135, #124 ) ;
#130 = DIRECTION ( 'NONE',  ( 1.000000000000000000, 0.0000000000000000000, 0.0000000000000000000 ) ) ;
#131 = UNCERTAINTY_MEASURE_WITH_UNIT (LENGTH_MEASURE( 1.000000000000000100E-005 ), #108, 'distance_accuracy_value', 'NONE');
#132 =( NAMED_UNIT ( * ) SI_UNIT ( $, .STERADIAN. ) SOLID_ANGLE_UNIT ( ) );
#133 =( NAMED_UNIT ( * ) SI_UNIT ( $, .STERADIAN. ) SOLID_ANGLE_UNIT ( ) );
#134 =( NAMED_UNIT ( * ) PLANE_ANGLE_UNIT ( ) SI_UNIT ( $, .RADIAN. ) );
#135 = DIRECTION ( 'NONE',  ( -1.000000000000000000, 1.224606353822377300E-016, 0.0000000000000000000 ) ) ;
#136 = DIRECTION ( 'NONE',  ( -0.0000000000000000000, -0.0000000000000000000, 1.000000000000000000 ) ) ;
#137 = CARTESIAN_POINT ( 'NONE',  ( -12.69999999999999900, 1.555250069354419100E-015, 9.398425736817234400 ) ) ;
#138 =( NAMED_UNIT ( * ) SI_UNIT ( $, .STERADIAN. ) SOLID_ANGLE_UNIT ( ) );
#139 =( NAMED_UNIT ( * ) PLANE_ANGLE_UNIT ( ) SI_UNIT ( $, .RADIAN. ) );
#140 =( LENGTH_UNIT ( ) NAMED_UNIT ( * ) SI_UNIT ( .MILLI., .METRE. ) );
#141 = MECHANICAL_DESIGN_GEOMETRIC_PRESENTATION_REPRESENTATION (  '', ( #143 ), #305 ) ;
#142 = PRESENTATION_LAYER_ASSIGNMENT (  '', '', ( #143 ) ) ;
#143 = STYLED_ITEM ( 'NONE', ( #213 ), #87 ) ;
#144 =( LENGTH_UNIT ( ) NAMED_UNIT ( * ) SI_UNIT ( .MILLI., .METRE. ) );
#145 = MECHANICAL_DESIGN_GEOMETRIC_PRESENTATION_REPRESENTATION (  '', ( #147 ), #207 ) ;
#146 = PRESENTATION_LAYER_ASSIGNMENT (  '', '', ( #147 ) ) ;
#147 = STYLED_ITEM ( 'NONE', ( #148 ), #67 ) ;
#148 = PRESENTATION_STYLE_ASSIGNMENT (( #149 ) ) ;
#149 = SURFACE_STYLE_USAGE ( .BOTH. , #150 ) ;
#150 = SURFACE_SIDE_STYLE ('',( #151 ) ) ;
#151 = SURFACE_STYLE_FILL_AREA ( #181 ) ;
#152 = AXIS2_PLACEMENT_3D ( 'NONE', #190, #153, #130 ) ;
#153 = DIRECTION ( 'NONE',  ( -0.0000000000000000000, -0.0000000000000000000, 1.000000000000000000 ) ) ;
#154 = CARTESIAN_POINT ( 'NONE',  ( 12.69999999999999900, 0.0000000000000000000, -2.288321981976170000 ) ) ;
#155 = CARTESIAN_POINT ( 'NONE',  ( -1.555250069354420500E-015, -12.70000000000001200, -2.288321981976173500 ) ) ;
#156 = DIRECTION ( 'NONE',  ( 1.000000000000000000, 0.0000000000000000000, 0.0000000000000000000 ) ) ;
#157 = DIRECTION ( 'NONE',  ( -0.0000000000000000000, -0.0000000000000000000, 1.000000000000000000 ) ) ;
#158 = CARTESIAN_POINT ( 'NONE',  ( 0.0000000000000000000, 0.0000000000000000000, -2.288321981976170000 ) ) ;
#159 = AXIS2_PLACEMENT_3D ( 'NONE', #158, #157, #156 ) ;
#160 = CIRCLE ( 'NONE', #159, 12.69999999999999900 ) ;
#161 = CARTESIAN_POINT ( 'NONE',  ( 12.69999999999999800, 0.0000000000000000000, -0.3272881005335817100 ) ) ;
#162 =( LENGTH_UNIT ( ) NAMED_UNIT ( * ) SI_UNIT ( .MILLI., .METRE. ) );
#163 = MECHANICAL_DESIGN_GEOMETRIC_PRESENTATION_REPRESENTATION (  '', ( #165 ), #128 ) ;
#164 = PRESENTATION_LAYER_ASSIGNMENT (  '', '', ( #165 ) ) ;
#165 = STYLED_ITEM ( 'NONE', ( #230 ), #42 ) ;
#166 = DIRECTION ( 'NONE',  ( -1.000000000000000000, 1.224606353822377300E-016, 0.0000000000000000000 ) ) ;
#167 =( LENGTH_UNIT ( ) NAMED_UNIT ( * ) SI_UNIT ( .MILLI., .METRE. ) );
#168 = MECHANICAL_DESIGN_GEOMETRIC_PRESENTATION_REPRESENTATION (  '', ( #175 ), #238 ) ;
#169 = UNCERTAINTY_MEASURE_WITH_UNIT (LENGTH_MEASURE( 1.000000000000000100E-005 ), #144, 'distance_accuracy_value', 'NONE');
#170 =( NAMED_UNIT ( * ) SI_UNIT ( $, .STERADIAN. ) SOLID_ANGLE_UNIT ( ) );
#171 =( NAMED_UNIT ( * ) PLANE_ANGLE_UNIT ( ) SI_UNIT ( $, .RADIAN. ) );
#172 = CARTESIAN_POINT ( 'NONE',  ( -1.555250069354419900E-015, -12.70000000000000500, -0.3272881005335808200 ) ) ;
#173 =( NAMED_UNIT ( * ) PLANE_ANGLE_UNIT ( ) SI_UNIT ( $, .RADIAN. ) );
#174 = PRESENTATION_LAYER_ASSIGNMENT (  '', '', ( #175 ) ) ;
#175 = STYLED_ITEM ( 'NONE', ( #176 ), #41 ) ;
#176 = PRESENTATION_STYLE_ASSIGNMENT (( #177 ) ) ;
#177 = SURFACE_STYLE_USAGE ( .BOTH. , #178 ) ;
#178 = SURFACE_SIDE_STYLE ('',( #179 ) ) ;
#179 = SURFACE_STYLE_FILL_AREA ( #180 ) ;
#180 = FILL_AREA_STYLE ('',( #113 ) ) ;
#181 = FILL_AREA_STYLE ('',( #182 ) ) ;
#182 = FILL_AREA_STYLE_COLOUR ( '', #183 ) ;
#183 = COLOUR_RGB ( '',0.9568627450980391500, 0.9490196078431372100, 0.9607843137254902200 ) ;
#184 = FACE_OUTER_BOUND ( 'NONE', #85, .T. ) ;
#185 = DIRECTION ( 'NONE',  ( 0.0000000000000000000, 1.000000000000000000, 0.0000000000000000000 ) ) ;
#186 = DIRECTION ( 'NONE',  ( -1.000000000000000000, 0.0000000000000000000, 0.0000000000000000000 ) ) ;
#187 = CARTESIAN_POINT ( 'NONE',  ( 0.0000000000000000000, 0.0000000000000000000, -83.53167801802382500 ) ) ;
#188 = AXIS2_PLACEMENT_3D ( 'NONE', #187, #186, #185 ) ;
#189 = CARTESIAN_POINT ( 'NONE',  ( 0.0000000000000000000, 12.70000000000000500, -0.3272881005335808200 ) ) ;
#190 = CARTESIAN_POINT ( 'NONE',  ( 0.0000000000000000000, 0.0000000000000000000, -0.3272881005335817100 ) ) ;
#191 = CIRCLE ( 'NONE', #129, 32.14000000000000100 ) ;
#192 = MECHANICAL_DESIGN_GEOMETRIC_PRESENTATION_REPRESENTATION (  '', ( #194 ), #199 ) ;
#193 = PRESENTATION_LAYER_ASSIGNMENT (  '', '', ( #194 ) ) ;
#194 = STYLED_ITEM ( 'NONE', ( #195 ), #29 ) ;
#195 = PRESENTATION_STYLE_ASSIGNMENT (( #196 ) ) ;
#196 = SURFACE_STYLE_USAGE ( .BOTH. , #226 ) ;
#197 = CARTESIAN_POINT ( 'NONE',  ( 0.0000000000000000000, 0.0000000000000000000, -29.85167801802383300 ) ) ;
#198 = SPHERICAL_SURFACE ( 'NONE', #111, 32.14000000000000100 ) ;
#199 =( GEOMETRIC_REPRESENTATION_CONTEXT ( 3 ) GLOBAL_UNCERTAINTY_ASSIGNED_CONTEXT ( ( #131 ) ) GLOBAL_UNIT_ASSIGNED_CONTEXT ( ( #108, #173, #132 ) ) REPRESENTATION_CONTEXT ( 'NONE', 'WORKASPACE' ) );
#200 = CARTESIAN_POINT ( 'NONE',  ( 0.0000000000000000000, 0.0000000000000000000, -83.53167801802382500 ) ) ;
#201 = LINE ( 'NONE', #137, #209 ) ;
#202 = UNCERTAINTY_MEASURE_WITH_UNIT (LENGTH_MEASURE( 1.000000000000000100E-005 ), #162, 'distance_accuracy_value', 'NONE');
#203 =( NAMED_UNIT ( * ) SI_UNIT ( $, .STERADIAN. ) SOLID_ANGLE_UNIT ( ) );
#204 =( NAMED_UNIT ( * ) PLANE_ANGLE_UNIT ( ) SI_UNIT ( $, .RADIAN. ) );
#205 = AXIS2_PLACEMENT_3D ( 'NONE', #121, #120, #119 ) ;
#206 = SPHERICAL_SURFACE ( 'NONE', #205, 32.14000000000000100 ) ;
#207 =( GEOMETRIC_REPRESENTATION_CONTEXT ( 3 ) GLOBAL_UNCERTAINTY_ASSIGNED_CONTEXT ( ( #169 ) ) GLOBAL_UNIT_ASSIGNED_CONTEXT ( ( #144, #171, #170 ) ) REPRESENTATION_CONTEXT ( 'NONE', 'WORKASPACE' ) );
#208 = CARTESIAN_POINT ( 'NONE',  ( -12.69999999999999800, 1.555250069354418900E-015, -0.3272881005335817100 ) ) ;
#209 = VECTOR ( 'NONE', #136, 1000.000000000000000 ) ;
#210 = FILL_AREA_STYLE_COLOUR ( '', #229 ) ;
#211 = FACE_OUTER_BOUND ( 'NONE', #30, .T. ) ;
#212 = CARTESIAN_POINT ( 'NONE',  ( -12.69999999999999900, 1.555250069354419100E-015, -2.288321981976170000 ) ) ;
#213 = PRESENTATION_STYLE_ASSIGNMENT (( #214 ) ) ;
#214 = SURFACE_STYLE_USAGE ( .BOTH. , #215 ) ;
#215 = SURFACE_SIDE_STYLE ('',( #216 ) ) ;
#216 = SURFACE_STYLE_FILL_AREA ( #217 ) ;
#217 = FILL_AREA_STYLE ('',( #225 ) ) ;
#218 = COLOUR_RGB ( '',0.9568627450980391500, 0.9490196078431372100, 0.9607843137254902200 ) ;
#219 = FACE_OUTER_BOUND ( 'NONE', #20, .T. ) ;
#220 = DIRECTION ( 'NONE',  ( 0.0000000000000000000, 0.0000000000000000000, -1.000000000000000000 ) ) ;
#221 = DIRECTION ( 'NONE',  ( 1.000000000000000000, -0.0000000000000000000, 0.0000000000000000000 ) ) ;
#222 = CARTESIAN_POINT ( 'NONE',  ( 0.0000000000000000000, 0.0000000000000000000, -83.53167801802382500 ) ) ;
#223 = AXIS2_PLACEMENT_3D ( 'NONE', #222, #221, #220 ) ;
#224 = CIRCLE ( 'NONE', #223, 82.23000000000000400 ) ;
#225 = FILL_AREA_STYLE_COLOUR ( '', #218 ) ;
#226 = SURFACE_SIDE_STYLE ('',( #227 ) ) ;
#227 = SURFACE_STYLE_FILL_AREA ( #228 ) ;
#228 = FILL_AREA_STYLE ('',( #210 ) ) ;
#229 = COLOUR_RGB ( '',0.9568627450980391500, 0.9490196078431372100, 0.9607843137254902200 ) ;
#230 = PRESENTATION_STYLE_ASSIGNMENT (( #231 ) ) ;
#231 = SURFACE_STYLE_USAGE ( .BOTH. , #232 ) ;
#232 = SURFACE_SIDE_STYLE ('',( #233 ) ) ;
#233 = SURFACE_STYLE_FILL_AREA ( #234 ) ;
#234 = FILL_AREA_STYLE ('',( #235 ) ) ;
#235 = FILL_AREA_STYLE_COLOUR ( '', #236 ) ;
#236 = COLOUR_RGB ( '',0.9568627450980391500, 0.9490196078431372100, 0.9607843137254902200 ) ;
#237 = FACE_OUTER_BOUND ( 'NONE', #43, .T. ) ;
#238 =( GEOMETRIC_REPRESENTATION_CONTEXT ( 3 ) GLOBAL_UNCERTAINTY_ASSIGNED_CONTEXT ( ( #123 ) ) GLOBAL_UNIT_ASSIGNED_CONTEXT ( ( #167, #134, #133 ) ) REPRESENTATION_CONTEXT ( 'NONE', 'WORKASPACE' ) );
#239 = CIRCLE ( 'NONE', #309, 12.69999999999999800 ) ;
#240 = DIRECTION ( 'NONE',  ( -0.0000000000000000000, -0.0000000000000000000, 1.000000000000000000 ) ) ;
#241 = CARTESIAN_POINT ( 'NONE',  ( 0.0000000000000000000, 0.0000000000000000000, -0.3272881005335817100 ) ) ;
#242 = AXIS2_PLACEMENT_3D ( 'NONE', #241, #240, #281 ) ;
#243 = CIRCLE ( 'NONE', #242, 12.69999999999999800 ) ;
#244 = CARTESIAN_POINT ( 'NONE',  ( 0.0000000000000000000, 12.70000000000001200, -2.288321981976173500 ) ) ;
#245 = UNCERTAINTY_MEASURE_WITH_UNIT (LENGTH_MEASURE( 1.000000000000000100E-005 ), #248, 'distance_accuracy_value', 'NONE');
#246 =( NAMED_UNIT ( * ) SI_UNIT ( $, .STERADIAN. ) SOLID_ANGLE_UNIT ( ) );
#247 =( NAMED_UNIT ( * ) PLANE_ANGLE_UNIT ( ) SI_UNIT ( $, .RADIAN. ) );
#248 =( LENGTH_UNIT ( ) NAMED_UNIT ( * ) SI_UNIT ( .MILLI., .METRE. ) );
#249 = MECHANICAL_DESIGN_GEOMETRIC_PRESENTATION_REPRESENTATION (  '', ( #251 ), #276 ) ;
#250 = PRESENTATION_LAYER_ASSIGNMENT (  '', '', ( #251 ) ) ;
#251 = STYLED_ITEM ( 'NONE', ( #285 ), #277 ) ;
#252 = DIRECTION ( 'NONE',  ( 1.000000000000000000, 0.0000000000000000000, 0.0000000000000000000 ) ) ;
#253 = DIRECTION ( 'NONE',  ( 1.000000000000000000, 0.0000000000000000000, 0.0000000000000000000 ) ) ;
#254 = DIRECTION ( 'NONE',  ( -0.0000000000000000000, -0.0000000000000000000, 1.000000000000000000 ) ) ;
#255 = SURFACE_STYLE_USAGE ( .BOTH. , #300 ) ;
#256 = AXIS2_PLACEMENT_3D ( 'NONE', #304, #296, #295 ) ;
#257 = CARTESIAN_POINT ( 'NONE',  ( 0.0000000000000000000, 0.0000000000000000000, -2.288321981976170000 ) ) ;
#258 = DIRECTION ( 'NONE',  ( -0.0000000000000000000, -0.0000000000000000000, 1.000000000000000000 ) ) ;
#259 =( NAMED_UNIT ( * ) SI_UNIT ( $, .STERADIAN. ) SOLID_ANGLE_UNIT ( ) );
#260 =( NAMED_UNIT ( * ) PLANE_ANGLE_UNIT ( ) SI_UNIT ( $, .RADIAN. ) );
#261 = CYLINDRICAL_SURFACE ( 'NONE', #256, 12.69999999999999900 ) ;
#262 =( GEOMETRIC_REPRESENTATION_CONTEXT ( 3 ) GLOBAL_UNCERTAINTY_ASSIGNED_CONTEXT ( ( #271 ) ) GLOBAL_UNIT_ASSIGNED_CONTEXT ( ( #294, #260, #259 ) ) REPRESENTATION_CONTEXT ( 'NONE', 'WORKASPACE' ) );
#263 = DIRECTION ( 'NONE',  ( 0.0000000000000000000, 0.0000000000000000000, 1.000000000000000000 ) ) ;
#264 = AXIS2_PLACEMENT_3D ( 'NONE', #303, #263, #265 ) ;
#265 = DIRECTION ( 'NONE',  ( 1.000000000000000000, 0.0000000000000000000, 0.0000000000000000000 ) ) ;
#266 = UNCERTAINTY_MEASURE_WITH_UNIT (LENGTH_MEASURE( 1.000000000000000100E-005 ), #268, 'distance_accuracy_value', 'NONE');
#267 =( NAMED_UNIT ( * ) SI_UNIT ( $, .STERADIAN. ) SOLID_ANGLE_UNIT ( ) );
#268 =( LENGTH_UNIT ( ) NAMED_UNIT ( * ) SI_UNIT ( .MILLI., .METRE. ) );
#269 = FACE_OUTER_BOUND ( 'NONE', #40, .T. ) ;
#270 = COLOUR_RGB ( '',0.9568627450980391500, 0.9490196078431372100, 0.9607843137254902200 ) ;
#271 = UNCERTAINTY_MEASURE_WITH_UNIT (LENGTH_MEASURE( 1.000000000000000100E-005 ), #294, 'distance_accuracy_value', 'NONE');
#272 = CARTESIAN_POINT ( 'NONE',  ( 0.0000000000000000000, 0.0000000000000000000, 9.398425736817234400 ) ) ;
#273 = PRESENTATION_LAYER_ASSIGNMENT (  '', '', ( #274 ) ) ;
#274 = STYLED_ITEM ( 'NONE', ( #275 ), #88 ) ;
#275 = PRESENTATION_STYLE_ASSIGNMENT (( #255 ) ) ;
#276 =( GEOMETRIC_REPRESENTATION_CONTEXT ( 3 ) GLOBAL_UNCERTAINTY_ASSIGNED_CONTEXT ( ( #245 ) ) GLOBAL_UNIT_ASSIGNED_CONTEXT ( ( #248, #247, #246 ) ) REPRESENTATION_CONTEXT ( 'NONE', 'WORKASPACE' ) );
#277 = ADVANCED_BREP_SHAPE_REPRESENTATION ( '3451-E0W', ( #41, #264 ), #297 ) ;
#278 =( NAMED_UNIT ( * ) PLANE_ANGLE_UNIT ( ) SI_UNIT ( $, .RADIAN. ) );
#279 = DIRECTION ( 'NONE',  ( -0.0000000000000000000, -0.0000000000000000000, 1.000000000000000000 ) ) ;
#280 = VECTOR ( 'NONE', #279, 1000.000000000000000 ) ;
#281 = DIRECTION ( 'NONE',  ( 1.000000000000000000, 0.0000000000000000000, 0.0000000000000000000 ) ) ;
#282 = DIRECTION ( 'NONE',  ( 1.000000000000000000, 0.0000000000000000000, 0.0000000000000000000 ) ) ;
#283 = DIRECTION ( 'NONE',  ( -0.0000000000000000000, -0.0000000000000000000, 1.000000000000000000 ) ) ;
#284 = AXIS2_PLACEMENT_3D ( 'NONE', #257, #283, #282 ) ;
#285 = PRESENTATION_STYLE_ASSIGNMENT (( #286 ) ) ;
#286 = SURFACE_STYLE_USAGE ( .BOTH. , #287 ) ;
#287 = SURFACE_SIDE_STYLE ('',( #288 ) ) ;
#288 = SURFACE_STYLE_FILL_AREA ( #289 ) ;
#289 = FILL_AREA_STYLE ('',( #290 ) ) ;
#290 = FILL_AREA_STYLE_COLOUR ( '', #291 ) ;
#291 = COLOUR_RGB ( '',0.7960784313725489700, 0.8235294117647058400, 0.9372549019607843100 ) ;
#292 = SURFACE_STYLE_FILL_AREA ( #301 ) ;
#293 = CYLINDRICAL_SURFACE ( 'NONE', #306, 12.69999999999999900 ) ;
#294 =( LENGTH_UNIT ( ) NAMED_UNIT ( * ) SI_UNIT ( .MILLI., .METRE. ) );
#295 = DIRECTION ( 'NONE',  ( 1.000000000000000000, 0.0000000000000000000, 0.0000000000000000000 ) ) ;
#296 = DIRECTION ( 'NONE',  ( -0.0000000000000000000, -0.0000000000000000000, 1.000000000000000000 ) ) ;
#297 =( GEOMETRIC_REPRESENTATION_CONTEXT ( 3 ) GLOBAL_UNCERTAINTY_ASSIGNED_CONTEXT ( ( #266 ) ) GLOBAL_UNIT_ASSIGNED_CONTEXT ( ( #268, #278, #267 ) ) REPRESENTATION_CONTEXT ( 'NONE', 'WORKASPACE' ) );
#298 = MECHANICAL_DESIGN_GEOMETRIC_PRESENTATION_REPRESENTATION (  '', ( #274 ), #262 ) ;
#299 = LINE ( 'NONE', #310, #280 ) ;
#300 = SURFACE_SIDE_STYLE ('',( #292 ) ) ;
#301 = FILL_AREA_STYLE ('',( #307 ) ) ;
#302 = CIRCLE ( 'NONE', #284, 12.69999999999999900 ) ;
#303 = CARTESIAN_POINT ( 'NONE',  ( 0.0000000000000000000, 0.0000000000000000000, 0.0000000000000000000 ) ) ;
#304 = CARTESIAN_POINT ( 'NONE',  ( 0.0000000000000000000, 0.0000000000000000000, 9.398425736817234400 ) ) ;
#305 =( GEOMETRIC_REPRESENTATION_CONTEXT ( 3 ) GLOBAL_UNCERTAINTY_ASSIGNED_CONTEXT ( ( #1 ) ) GLOBAL_UNIT_ASSIGNED_CONTEXT ( ( #140, #139, #138 ) ) REPRESENTATION_CONTEXT ( 'NONE', 'WORKASPACE' ) );
#306 = AXIS2_PLACEMENT_3D ( 'NONE', #272, #258, #252 ) ;
#307 = FILL_AREA_STYLE_COLOUR ( '', #270 ) ;
#308 = CARTESIAN_POINT ( 'NONE',  ( 0.0000000000000000000, 0.0000000000000000000, -0.3272881005335817100 ) ) ;
#309 = AXIS2_PLACEMENT_3D ( 'NONE', #308, #254, #253 ) ;
#310 = CARTESIAN_POINT ( 'NONE',  ( 12.69999999999999900, 0.0000000000000000000, 9.398425736817234400 ) ) ;
#311 = SHAPE_DEFINITION_REPRESENTATION ( #314, #277 ) ;
#312 = APPLICATION_PROTOCOL_DEFINITION ( 'draft international standard', 'automotive_design', 1998, #313 ) ;
#313 = APPLICATION_CONTEXT ( 'automotive_design' ) ;
#314 = PRODUCT_DEFINITION_SHAPE ( 'NONE', 'NONE',  #320 ) ;
#315 = PRODUCT_RELATED_PRODUCT_CATEGORY ( 'part', '', ( #321 ) ) ;
#316 = PRODUCT_DEFINITION_CONTEXT ( 'detailed design', #318, 'design' ) ;
#317 = APPLICATION_PROTOCOL_DEFINITION ( 'draft international standard', 'automotive_design', 1998, #318 ) ;
#318 = APPLICATION_CONTEXT ( 'automotive_design' ) ;
#319 = PRODUCT_DEFINITION_FORMATION_WITH_SPECIFIED_SOURCE ( 'ANY', '', #321, .NOT_KNOWN. ) ;
#320 = PRODUCT_DEFINITION ( 'UNKNOWN', '', #319, #316 ) ;
#321 = PRODUCT ( '3451-E0W', '3451-E0W', '', ( #322 ) ) ;
#322 = PRODUCT_CONTEXT ( 'NONE', #313, 'mechanical' ) ;
ENDSEC;
END-ISO-10303-21;
