ISO-10303-21;
HEADER;
FILE_DESCRIPTION (( 'STEP AP203' ),
    '1' );
FILE_NAME ('4350-E0W.STEP',
    '2015-06-17T20:52:52',
    ( 'admin' ),
    ( '' ),
    'SwSTEP 2.0',
    'SolidWorks 2014',
    '' );
FILE_SCHEMA (( 'CONFIG_CONTROL_DESIGN' ));
ENDSEC;

DATA;
#1 = ORIENTED_EDGE ( 'NONE', *, *, #106, .T. ) ;
#2 = SECURITY_CLASSIFICATION_LEVEL ( 'unclassified' ) ;
#3 = APPLICATION_CONTEXT ( 'configuration controlled 3d designs of mechanical parts and assemblies' ) ;
#4 = CARTESIAN_POINT ( 'NONE',  ( 0.0000000000000000000, 0.0000000000000000000, 5.585658327635131900 ) ) ;
#5 = DIRECTION ( 'NONE',  ( -0.0000000000000000000, -0.0000000000000000000, 1.000000000000000000 ) ) ;
#6 = DIRECTION ( 'NONE',  ( -1.000000000000000000, 0.0000000000000000000, 0.0000000000000000000 ) ) ;
#7 = CARTESIAN_POINT ( 'NONE',  ( 0.0000000000000000000, 12.59991761103072100, 5.585658327635131900 ) ) ;
#8 = EDGE_LOOP ( 'NONE', ( #86, #269, #189, #197 ) ) ;
#9 = AXIS2_PLACEMENT_3D ( 'NONE', #90, #110, #205 ) ;
#10 = CONICAL_SURFACE ( 'NONE', #180, 12.69999999999999900, 0.7853981633974447300 ) ;
#11 = DIRECTION ( 'NONE',  ( -0.9798698523458087000, 0.0000000000000000000, -0.1996373523762598700 ) ) ;
#12 = CARTESIAN_POINT ( 'NONE',  ( 12.59991761103072100, 1.549173156052026200E-015, 5.585658327635131900 ) ) ;
#13 = AXIS2_PLACEMENT_3D ( 'NONE', #96, #65, #81 ) ;
#14 = LOCAL_TIME ( 16, 52, 52.00000000000000000, #188 ) ;
#15 = VERTEX_POINT ( 'NONE', #312 ) ;
#16 = ORIENTED_EDGE ( 'NONE', *, *, #267, .T. ) ;
#17 = APPROVAL_ROLE ( '' ) ;
#18 = DIRECTION ( 'NONE',  ( 1.000000000000000000, 0.0000000000000000000, 0.0000000000000000000 ) ) ;
#19 = CC_DESIGN_PERSON_AND_ORGANIZATION_ASSIGNMENT ( #70, #224, ( #316 ) ) ;
#20 = DIRECTION ( 'NONE',  ( 1.000000000000000000, 0.0000000000000000000, 0.0000000000000000000 ) ) ;
#21 = CARTESIAN_POINT ( 'NONE',  ( 0.0000000000000000000, 0.0000000000000000000, 5.565267677687606900 ) ) ;
#22 = ORIENTED_EDGE ( 'NONE', *, *, #125, .T. ) ;
#23 = EDGE_CURVE ( 'NONE', #100, #143, #182, .T. ) ;
#24 = CIRCLE ( 'NONE', #196, 12.59991761103072100 ) ;
#25 = EDGE_CURVE ( 'NONE', #296, #100, #186, .T. ) ;
#26 = AXIS2_PLACEMENT_3D ( 'NONE', #194, #6, #128 ) ;
#27 = CARTESIAN_POINT ( 'NONE',  ( 0.0000000000000000000, 0.0000000000000000000, -5.585658327635132800 ) ) ;
#28 = DIRECTION ( 'NONE',  ( 0.0000000000000000000, 0.0000000000000000000, -1.000000000000000000 ) ) ;
#29 = CARTESIAN_POINT ( 'NONE',  ( -12.44999999999999800, 1.539993349927796500E-015, -5.585658327635132800 ) ) ;
#30 = APPROVAL_ROLE ( '' ) ;
#31 = AXIS2_PLACEMENT_3D ( 'NONE', #134, #275, #192 ) ;
#32 = EDGE_LOOP ( 'NONE', ( #290, #285, #300, #261, #58 ) ) ;
#33 = CALENDAR_DATE ( 2015, 17, 6 ) ;
#34 = PLANE ( 'NONE',  #260 ) ;
#35 = EDGE_LOOP ( 'NONE', ( #206, #217, #174, #93 ) ) ;
#36 = CARTESIAN_POINT ( 'NONE',  ( 0.0000000000000000000, 0.0000000000000000000, 0.0000000000000000000 ) ) ;
#37 = FACE_OUTER_BOUND ( 'NONE', #32, .T. ) ;
#38 = CC_DESIGN_DATE_AND_TIME_ASSIGNMENT ( #89, #47, ( #316 ) ) ;
#39 = DIRECTION ( 'NONE',  ( -0.0000000000000000000, -0.0000000000000000000, 1.000000000000000000 ) ) ;
#40 = CARTESIAN_POINT ( 'NONE',  ( -12.69999999999999900, 1.555301434917138400E-015, -2.585658327635132400 ) ) ;
#41 = DIRECTION ( 'NONE',  ( 1.000000000000000000, 0.0000000000000000000, 0.0000000000000000000 ) ) ;
#42 = AXIS2_PLACEMENT_3D ( 'NONE', #4, #156, #20 ) ;
#43 = DIRECTION ( 'NONE',  ( 1.000000000000000000, -0.0000000000000000000, 0.0000000000000000000 ) ) ;
#44 = CIRCLE ( 'NONE', #310, 13.79999999999999900 ) ;
#45 = DIRECTION ( 'NONE',  ( 0.0000000000000000000, 0.0000000000000000000, -1.000000000000000000 ) ) ;
#46 = AXIS2_PLACEMENT_3D ( 'NONE', #79, #45, #74 ) ;
#47 = DATE_TIME_ROLE ( 'classification_date' ) ;
#48 = APPROVAL ( #314, 'UNSPECIFIED' ) ;
#49 = PRODUCT_DEFINITION_SHAPE ( 'NONE', 'NONE',  #150 ) ;
#50 =( GEOMETRIC_REPRESENTATION_CONTEXT ( 3 ) GLOBAL_UNCERTAINTY_ASSIGNED_CONTEXT ( ( #107 ) ) GLOBAL_UNIT_ASSIGNED_CONTEXT ( ( #201, #220, #259 ) ) REPRESENTATION_CONTEXT ( 'NONE', 'WORKASPACE' ) );
#51 = EDGE_CURVE ( 'NONE', #99, #143, #77, .T. ) ;
#52 = CARTESIAN_POINT ( 'NONE',  ( 0.0000000000000000000, 0.0000000000000000000, 5.585658327635131900 ) ) ;
#53 = ADVANCED_FACE ( 'NONE', ( #173 ), #131, .T. ) ;
#54 = CARTESIAN_POINT ( 'NONE',  ( -12.69999999999999900, 1.555301434917138400E-015, -5.335658327635129300 ) ) ;
#55 = AXIS2_PLACEMENT_3D ( 'NONE', #21, #157, #203 ) ;
#56 = PERSON_AND_ORGANIZATION ( #198, #284 ) ;
#57 = EDGE_CURVE ( 'NONE', #15, #83, #158, .T. ) ;
#58 = ORIENTED_EDGE ( 'NONE', *, *, #66, .F. ) ;
#59 = CIRCLE ( 'NONE', #42, 12.59991761103072100 ) ;
#60 = CC_DESIGN_APPROVAL ( #48, ( #316 ) ) ;
#61 = APPROVAL_DATE_TIME ( #257, #48 ) ;
#62 = DIRECTION ( 'NONE',  ( 0.0000000000000000000, 0.0000000000000000000, -1.000000000000000000 ) ) ;
#63 = EDGE_CURVE ( 'NONE', #99, #142, #168, .T. ) ;
#64 = DIRECTION ( 'NONE',  ( -0.0000000000000000000, -0.0000000000000000000, 1.000000000000000000 ) ) ;
#65 = DIRECTION ( 'NONE',  ( -0.0000000000000000000, -0.0000000000000000000, 1.000000000000000000 ) ) ;
#66 = EDGE_CURVE ( 'NONE', #270, #143, #122, .T. ) ;
#67 = CARTESIAN_POINT ( 'NONE',  ( 0.0000000000000000000, 0.0000000000000000000, -5.335658327635129300 ) ) ;
#68 = AXIS2_PLACEMENT_3D ( 'NONE', #317, #78, #149 ) ;
#69 = EDGE_CURVE ( 'NONE', #143, #270, #137, .T. ) ;
#70 = PERSON_AND_ORGANIZATION ( #198, #284 ) ;
#71 = CC_DESIGN_SECURITY_CLASSIFICATION ( #316, ( #243 ) ) ;
#72 = ADVANCED_FACE ( 'NONE', ( #183 ), #238, .F. ) ;
#73 = CARTESIAN_POINT ( 'NONE',  ( 12.69999999999999900, 0.0000000000000000000, -5.335658327635129300 ) ) ;
#74 = DIRECTION ( 'NONE',  ( -1.000000000000000000, 0.0000000000000000000, 0.0000000000000000000 ) ) ;
#75 = CARTESIAN_POINT ( 'NONE',  ( -12.59991761103071900, 0.0000000000000000000, 5.585658327635133700 ) ) ;
#76 = DIRECTION ( 'NONE',  ( 0.0000000000000000000, 0.0000000000000000000, -1.000000000000000000 ) ) ;
#77 = LINE ( 'NONE', #75, #164 ) ;
#78 = DIRECTION ( 'NONE',  ( -1.000000000000000000, 1.224646799147353200E-016, 0.0000000000000000000 ) ) ;
#79 = CARTESIAN_POINT ( 'NONE',  ( 0.0000000000000000000, 0.0000000000000000000, 5.565267677687606900 ) ) ;
#80 = LOCAL_TIME ( 16, 52, 52.00000000000000000, #120 ) ;
#81 = DIRECTION ( 'NONE',  ( 1.000000000000000000, 0.0000000000000000000, 0.0000000000000000000 ) ) ;
#82 = DIRECTION ( 'NONE',  ( 0.7071067811865451300, 0.0000000000000000000, 0.7071067811865500200 ) ) ;
#83 = VERTEX_POINT ( 'NONE', #73 ) ;
#84 = AXIS2_PLACEMENT_3D ( 'NONE', #216, #155, #211 ) ;
#85 = DATE_AND_TIME ( #33, #14 ) ;
#86 = ORIENTED_EDGE ( 'NONE', *, *, #25, .F. ) ;
#87 = PRODUCT_RELATED_PRODUCT_CATEGORY ( 'detail', '', ( #239 ) ) ;
#88 = EDGE_CURVE ( 'NONE', #241, #142, #235, .T. ) ;
#89 = DATE_AND_TIME ( #283, #306 ) ;
#90 = CARTESIAN_POINT ( 'NONE',  ( 0.0000000000000000000, 0.0000000000000000000, -5.335658327635129300 ) ) ;
#91 = DESIGN_CONTEXT ( 'detailed design', #160, 'design' ) ;
#92 = EDGE_CURVE ( 'NONE', #83, #100, #233, .T. ) ;
#93 = ORIENTED_EDGE ( 'NONE', *, *, #57, .F. ) ;
#94 = ORIENTED_EDGE ( 'NONE', *, *, #175, .F. ) ;
#95 = ADVANCED_FACE ( 'NONE', ( #237 ), #253, .T. ) ;
#96 = CARTESIAN_POINT ( 'NONE',  ( 0.0000000000000000000, 0.0000000000000000000, 5.585658327635131900 ) ) ;
#97 = DIRECTION ( 'NONE',  ( -0.0000000000000000000, -0.0000000000000000000, 1.000000000000000000 ) ) ;
#98 = PERSON_AND_ORGANIZATION ( #198, #284 ) ;
#99 = VERTEX_POINT ( 'NONE', #139 ) ;
#100 = VERTEX_POINT ( 'NONE', #114 ) ;
#101 = CARTESIAN_POINT ( 'NONE',  ( 0.0000000000000000000, 8.450062914116736700E-016, -2.585658327635131900 ) ) ;
#102 = AXIS2_PLACEMENT_3D ( 'NONE', #276, #215, #170 ) ;
#103 = APPROVAL_PERSON_ORGANIZATION ( #299, #48, #135 ) ;
#104 = APPROVAL_DATE_TIME ( #152, #172 ) ;
#105 = EDGE_LOOP ( 'NONE', ( #118, #225, #248, #108, #94 ) ) ;
#106 = EDGE_CURVE ( 'NONE', #83, #270, #293, .T. ) ;
#107 = UNCERTAINTY_MEASURE_WITH_UNIT (LENGTH_MEASURE( 1.000000000000000100E-005 ), #201, 'distance_accuracy_value', 'NONE');
#108 = ORIENTED_EDGE ( 'NONE', *, *, #51, .F. ) ;
#109 = FACE_OUTER_BOUND ( 'NONE', #301, .T. ) ;
#110 = DIRECTION ( 'NONE',  ( -0.0000000000000000000, -0.0000000000000000000, 1.000000000000000000 ) ) ;
#111 = ORIENTED_EDGE ( 'NONE', *, *, #88, .T. ) ;
#112 = DIRECTION ( 'NONE',  ( 1.000000000000000000, 0.0000000000000000000, 0.0000000000000000000 ) ) ;
#113 = ORIENTED_EDGE ( 'NONE', *, *, #263, .T. ) ;
#114 = CARTESIAN_POINT ( 'NONE',  ( -12.69999999999999900, 1.555301434917138400E-015, -5.335658327635129300 ) ) ;
#115 = AXIS2_PLACEMENT_3D ( 'NONE', #36, #313, #202 ) ;
#116 = PERSON_AND_ORGANIZATION_ROLE ( 'creator' ) ;
#117 = CARTESIAN_POINT ( 'NONE',  ( 0.0000000000000000000, 0.0000000000000000000, 5.585658327635133700 ) ) ;
#118 = ORIENTED_EDGE ( 'NONE', *, *, #263, .F. ) ;
#119 = AXIS2_PLACEMENT_3D ( 'NONE', #140, #76, #18 ) ;
#120 = COORDINATED_UNIVERSAL_TIME_OFFSET ( 5, 0, .BEHIND. ) ;
#121 = VERTEX_POINT ( 'NONE', #7 ) ;
#122 = CIRCLE ( 'NONE', #46, 12.69999999999999900 ) ;
#123 = CIRCLE ( 'NONE', #298, 12.69999999999999900 ) ;
#124 = DIRECTION ( 'NONE',  ( 1.000000000000000000, 0.0000000000000000000, 0.0000000000000000000 ) ) ;
#125 = EDGE_CURVE ( 'NONE', #296, #15, #286, .T. ) ;
#126 = EDGE_LOOP ( 'NONE', ( #278, #111, #226, #113 ) ) ;
#127 = CARTESIAN_POINT ( 'NONE',  ( 12.69999999999999900, 0.0000000000000000000, 5.565267677687606900 ) ) ;
#128 = DIRECTION ( 'NONE',  ( 0.0000000000000000000, 1.000000000000000000, 0.0000000000000000000 ) ) ;
#129 = CARTESIAN_POINT ( 'NONE',  ( 0.0000000000000000000, 0.0000000000000000000, -5.585658327635132800 ) ) ;
#130 = EDGE_LOOP ( 'NONE', ( #252, #178, #221, #228 ) ) ;
#131 = CYLINDRICAL_SURFACE ( 'NONE', #31, 12.69999999999999900 ) ;
#132 = CONICAL_SURFACE ( 'NONE', #246, 12.59991761103071900, 1.369808517713361700 ) ;
#133 = CC_DESIGN_PERSON_AND_ORGANIZATION_ASSIGNMENT ( #98, #315, ( #239 ) ) ;
#134 = CARTESIAN_POINT ( 'NONE',  ( 0.0000000000000000000, 0.0000000000000000000, -2.585658327635132400 ) ) ;
#135 = APPROVAL_ROLE ( '' ) ;
#136 = EDGE_CURVE ( 'NONE', #15, #296, #229, .T. ) ;
#137 = CIRCLE ( 'NONE', #55, 12.69999999999999900 ) ;
#138 = SPHERICAL_SURFACE ( 'NONE', #26, 13.79999999999999900 ) ;
#139 = CARTESIAN_POINT ( 'NONE',  ( -12.59991761103072100, 0.0000000000000000000, 5.585658327635131900 ) ) ;
#140 = CARTESIAN_POINT ( 'NONE',  ( 0.0000000000000000000, 0.0000000000000000000, -5.585658327635132800 ) ) ;
#141 = AXIS2_PLACEMENT_3D ( 'NONE', #27, #209, #112 ) ;
#142 = VERTEX_POINT ( 'NONE', #319 ) ;
#143 = VERTEX_POINT ( 'NONE', #305 ) ;
#144 = VECTOR ( 'NONE', #82, 1000.000000000000100 ) ;
#145 = DIRECTION ( 'NONE',  ( -1.000000000000000000, 0.0000000000000000000, 0.0000000000000000000 ) ) ;
#146 = APPROVAL_STATUS ( 'not_yet_approved' ) ;
#147 = COORDINATED_UNIVERSAL_TIME_OFFSET ( 5, 0, .BEHIND. ) ;
#148 = CONICAL_SURFACE ( 'NONE', #9, 12.69999999999999900, 0.7853981633974447300 ) ;
#149 = DIRECTION ( 'NONE',  ( -1.224646799147353200E-016, -1.000000000000000000, 0.0000000000000000000 ) ) ;
#150 = PRODUCT_DEFINITION ( 'UNKNOWN', '', #243, #91 ) ;
#151 = MANIFOLD_SOLID_BREP ( '4350-001-1-solid1', #308 ) ;
#152 = DATE_AND_TIME ( #176, #80 ) ;
#153 = ORIENTED_EDGE ( 'NONE', *, *, #66, .T. ) ;
#154 = ADVANCED_FACE ( 'NONE', ( #212 ), #10, .T. ) ;
#155 = DIRECTION ( 'NONE',  ( -1.000000000000000000, 0.0000000000000000000, 0.0000000000000000000 ) ) ;
#156 = DIRECTION ( 'NONE',  ( -0.0000000000000000000, -0.0000000000000000000, 1.000000000000000000 ) ) ;
#157 = DIRECTION ( 'NONE',  ( 0.0000000000000000000, 0.0000000000000000000, -1.000000000000000000 ) ) ;
#158 = LINE ( 'NONE', #232, #144 ) ;
#159 = AXIS2_PLACEMENT_3D ( 'NONE', #303, #297, #231 ) ;
#160 = APPLICATION_CONTEXT ( 'configuration controlled 3d designs of mechanical parts and assemblies' ) ;
#161 = APPLICATION_PROTOCOL_DEFINITION ( 'international standard', 'config_control_design', 1994, #3 ) ;
#162 = DIRECTION ( 'NONE',  ( -0.0000000000000000000, -0.0000000000000000000, 1.000000000000000000 ) ) ;
#163 = PERSON_AND_ORGANIZATION ( #198, #284 ) ;
#164 = VECTOR ( 'NONE', #11, 1000.000000000000200 ) ;
#165 = DIRECTION ( 'NONE',  ( 1.000000000000000000, 0.0000000000000000000, 0.0000000000000000000 ) ) ;
#166 = ORIENTED_EDGE ( 'NONE', *, *, #63, .T. ) ;
#167 = CARTESIAN_POINT ( 'NONE',  ( 12.59991761103071900, 1.543044877186913600E-015, 5.585658327635133700 ) ) ;
#168 = CIRCLE ( 'NONE', #13, 12.59991761103072100 ) ;
#169 = VECTOR ( 'NONE', #223, 1000.000000000000100 ) ;
#170 = DIRECTION ( 'NONE',  ( 1.000000000000000000, 0.0000000000000000000, 0.0000000000000000000 ) ) ;
#171 = DIRECTION ( 'NONE',  ( -0.0000000000000000000, -0.0000000000000000000, 1.000000000000000000 ) ) ;
#172 = APPROVAL ( #230, 'UNSPECIFIED' ) ;
#173 = FACE_OUTER_BOUND ( 'NONE', #207, .T. ) ;
#174 = ORIENTED_EDGE ( 'NONE', *, *, #92, .F. ) ;
#175 = EDGE_CURVE ( 'NONE', #121, #99, #24, .T. ) ;
#176 = CALENDAR_DATE ( 2015, 17, 6 ) ;
#177 = VECTOR ( 'NONE', #171, 1000.000000000000000 ) ;
#178 = ORIENTED_EDGE ( 'NONE', *, *, #23, .T. ) ;
#179 = LINE ( 'NONE', #167, #294 ) ;
#180 = AXIS2_PLACEMENT_3D ( 'NONE', #258, #64, #200 ) ;
#181 = PERSON_AND_ORGANIZATION_ROLE ( 'design_supplier' ) ;
#182 = LINE ( 'NONE', #40, #177 ) ;
#183 = FACE_OUTER_BOUND ( 'NONE', #126, .T. ) ;
#184 = ADVANCED_FACE ( 'NONE', ( #274 ), #190, .T. ) ;
#185 = PERSON_AND_ORGANIZATION ( #198, #284 ) ;
#186 = LINE ( 'NONE', #54, #169 ) ;
#187 = PERSON_AND_ORGANIZATION_ROLE ( 'creator' ) ;
#188 = COORDINATED_UNIVERSAL_TIME_OFFSET ( 5, 0, .BEHIND. ) ;
#189 = ORIENTED_EDGE ( 'NONE', *, *, #57, .T. ) ;
#190 = CONICAL_SURFACE ( 'NONE', #218, 12.59991761103071900, 1.369808517713361700 ) ;
#191 = APPLICATION_PROTOCOL_DEFINITION ( 'international standard', 'config_control_design', 1994, #160 ) ;
#192 = DIRECTION ( 'NONE',  ( 1.000000000000000000, 0.0000000000000000000, 0.0000000000000000000 ) ) ;
#193 = CC_DESIGN_APPROVAL ( #172, ( #150 ) ) ;
#194 = CARTESIAN_POINT ( 'NONE',  ( 0.0000000000000000000, 0.0000000000000000000, 11.21434167236486700 ) ) ;
#195 = ORIENTED_EDGE ( 'NONE', *, *, #175, .T. ) ;
#196 = AXIS2_PLACEMENT_3D ( 'NONE', #52, #39, #41 ) ;
#197 = ORIENTED_EDGE ( 'NONE', *, *, #267, .F. ) ;
#198 = PERSON ( 'UNSPECIFIED', 'UNSPECIFIED', 'UNSPECIFIED', ('UNSPECIFIED'), ('UNSPECIFIED'), ('UNSPECIFIED') ) ;
#199 = ORIENTED_EDGE ( 'NONE', *, *, #88, .F. ) ;
#200 = DIRECTION ( 'NONE',  ( 1.000000000000000000, 0.0000000000000000000, 0.0000000000000000000 ) ) ;
#201 =( LENGTH_UNIT ( ) NAMED_UNIT ( * ) SI_UNIT ( .MILLI., .METRE. ) );
#202 = DIRECTION ( 'NONE',  ( 1.000000000000000000, 0.0000000000000000000, 0.0000000000000000000 ) ) ;
#203 = DIRECTION ( 'NONE',  ( -1.000000000000000000, 0.0000000000000000000, 0.0000000000000000000 ) ) ;
#204 = DIRECTION ( 'NONE',  ( 1.000000000000000000, 0.0000000000000000000, 0.0000000000000000000 ) ) ;
#205 = DIRECTION ( 'NONE',  ( 1.000000000000000000, 0.0000000000000000000, 0.0000000000000000000 ) ) ;
#206 = ORIENTED_EDGE ( 'NONE', *, *, #125, .F. ) ;
#207 = EDGE_LOOP ( 'NONE', ( #295, #16, #1, #153 ) ) ;
#208 = CC_DESIGN_PERSON_AND_ORGANIZATION_ASSIGNMENT ( #163, #116, ( #150 ) ) ;
#209 = DIRECTION ( 'NONE',  ( 0.0000000000000000000, 0.0000000000000000000, -1.000000000000000000 ) ) ;
#210 = DATE_AND_TIME ( #244, #240 ) ;
#211 = DIRECTION ( 'NONE',  ( 0.0000000000000000000, 1.000000000000000000, 0.0000000000000000000 ) ) ;
#212 = FACE_OUTER_BOUND ( 'NONE', #8, .T. ) ;
#213 = CIRCLE ( 'NONE', #279, 12.59991761103072100 ) ;
#214 = ADVANCED_FACE ( 'NONE', ( #249 ), #34, .F. ) ;
#215 = DIRECTION ( 'NONE',  ( -0.0000000000000000000, -0.0000000000000000000, 1.000000000000000000 ) ) ;
#216 = CARTESIAN_POINT ( 'NONE',  ( 0.0000000000000000000, 0.0000000000000000000, 11.21434167236486700 ) ) ;
#217 = ORIENTED_EDGE ( 'NONE', *, *, #25, .T. ) ;
#218 = AXIS2_PLACEMENT_3D ( 'NONE', #117, #28, #321 ) ;
#219 = CARTESIAN_POINT ( 'NONE',  ( 0.0000000000000000000, 0.0000000000000000000, 5.585658327635133700 ) ) ;
#220 =( NAMED_UNIT ( * ) PLANE_ANGLE_UNIT ( ) SI_UNIT ( $, .RADIAN. ) );
#221 = ORIENTED_EDGE ( 'NONE', *, *, #69, .T. ) ;
#222 = DIRECTION ( 'NONE',  ( 0.0000000000000000000, -0.0000000000000000000, 1.000000000000000000 ) ) ;
#223 = DIRECTION ( 'NONE',  ( -0.7071067811865451300, 8.659560562354904500E-017, 0.7071067811865500200 ) ) ;
#224 = PERSON_AND_ORGANIZATION_ROLE ( 'classification_officer' ) ;
#225 = ORIENTED_EDGE ( 'NONE', *, *, #289, .T. ) ;
#226 = ORIENTED_EDGE ( 'NONE', *, *, #309, .T. ) ;
#227 = CC_DESIGN_DATE_AND_TIME_ASSIGNMENT ( #210, #320, ( #150 ) ) ;
#228 = ORIENTED_EDGE ( 'NONE', *, *, #106, .F. ) ;
#229 = CIRCLE ( 'NONE', #119, 12.44999999999999800 ) ;
#230 = APPROVAL_STATUS ( 'not_yet_approved' ) ;
#231 = DIRECTION ( 'NONE',  ( 1.000000000000000000, 0.0000000000000000000, 0.0000000000000000000 ) ) ;
#232 = CARTESIAN_POINT ( 'NONE',  ( 12.69999999999999900, 0.0000000000000000000, -5.335658327635129300 ) ) ;
#233 = CIRCLE ( 'NONE', #102, 12.69999999999999900 ) ;
#234 = COORDINATED_UNIVERSAL_TIME_OFFSET ( 5, 0, .BEHIND. ) ;
#235 = CIRCLE ( 'NONE', #68, 13.79999999999999900 ) ;
#236 = APPROVAL_PERSON_ORGANIZATION ( #56, #172, #30 ) ;
#237 = FACE_OUTER_BOUND ( 'NONE', #130, .T. ) ;
#238 = SPHERICAL_SURFACE ( 'NONE', #84, 13.79999999999999900 ) ;
#239 = PRODUCT ( '4350-E0W', '4350-E0W', '', ( #265 ) ) ;
#240 = LOCAL_TIME ( 16, 52, 52.00000000000000000, #234 ) ;
#241 = VERTEX_POINT ( 'NONE', #101 ) ;
#242 = EDGE_LOOP ( 'NONE', ( #292, #22 ) ) ;
#243 = PRODUCT_DEFINITION_FORMATION_WITH_SPECIFIED_SOURCE ( 'ANY', '', #239, .NOT_KNOWN. ) ;
#244 = CALENDAR_DATE ( 2015, 17, 6 ) ;
#245 = ADVANCED_BREP_SHAPE_REPRESENTATION ( '4350-E0W', ( #151, #115 ), #50 ) ;
#246 = AXIS2_PLACEMENT_3D ( 'NONE', #219, #62, #145 ) ;
#247 = APPROVAL_PERSON_ORGANIZATION ( #185, #254, #17 ) ;
#248 = ORIENTED_EDGE ( 'NONE', *, *, #69, .F. ) ;
#249 = FACE_OUTER_BOUND ( 'NONE', #242, .T. ) ;
#250 = ORIENTED_EDGE ( 'NONE', *, *, #282, .T. ) ;
#251 = CARTESIAN_POINT ( 'NONE',  ( 0.0000000000000000000, 0.0000000000000000000, 11.21434167236486700 ) ) ;
#252 = ORIENTED_EDGE ( 'NONE', *, *, #92, .T. ) ;
#253 = CYLINDRICAL_SURFACE ( 'NONE', #159, 12.69999999999999900 ) ;
#254 = APPROVAL ( #146, 'UNSPECIFIED' ) ;
#255 = VECTOR ( 'NONE', #97, 1000.000000000000000 ) ;
#256 = ADVANCED_FACE ( 'NONE', ( #37 ), #132, .T. ) ;
#257 = DATE_AND_TIME ( #281, #271 ) ;
#258 = CARTESIAN_POINT ( 'NONE',  ( 0.0000000000000000000, 0.0000000000000000000, -5.335658327635129300 ) ) ;
#259 =( NAMED_UNIT ( * ) SI_UNIT ( $, .STERADIAN. ) SOLID_ANGLE_UNIT ( ) );
#260 = AXIS2_PLACEMENT_3D ( 'NONE', #129, #222, #204 ) ;
#261 = ORIENTED_EDGE ( 'NONE', *, *, #51, .T. ) ;
#262 = DIRECTION ( 'NONE',  ( 0.9798698523458087000, 1.199994478256284200E-016, -0.1996373523762598700 ) ) ;
#263 = EDGE_CURVE ( 'NONE', #277, #121, #213, .T. ) ;
#264 = APPROVAL_DATE_TIME ( #85, #254 ) ;
#265 = MECHANICAL_CONTEXT ( 'NONE', #3, 'mechanical' ) ;
#266 = SHAPE_DEFINITION_REPRESENTATION ( #49, #245 ) ;
#267 = EDGE_CURVE ( 'NONE', #100, #83, #123, .T. ) ;
#268 = PERSON_AND_ORGANIZATION ( #198, #284 ) ;
#269 = ORIENTED_EDGE ( 'NONE', *, *, #136, .F. ) ;
#270 = VERTEX_POINT ( 'NONE', #127 ) ;
#271 = LOCAL_TIME ( 16, 52, 52.00000000000000000, #318 ) ;
#272 = CC_DESIGN_APPROVAL ( #254, ( #243 ) ) ;
#273 = PERSON_AND_ORGANIZATION ( #198, #284 ) ;
#274 = FACE_OUTER_BOUND ( 'NONE', #105, .T. ) ;
#275 = DIRECTION ( 'NONE',  ( -0.0000000000000000000, -0.0000000000000000000, 1.000000000000000000 ) ) ;
#276 = CARTESIAN_POINT ( 'NONE',  ( 0.0000000000000000000, 0.0000000000000000000, -5.335658327635129300 ) ) ;
#277 = VERTEX_POINT ( 'NONE', #12 ) ;
#278 = ORIENTED_EDGE ( 'NONE', *, *, #282, .F. ) ;
#279 = AXIS2_PLACEMENT_3D ( 'NONE', #311, #5, #165 ) ;
#280 = DIRECTION ( 'NONE',  ( 0.0000000000000000000, 0.0000000000000000000, -1.000000000000000000 ) ) ;
#281 = CALENDAR_DATE ( 2015, 17, 6 ) ;
#282 = EDGE_CURVE ( 'NONE', #241, #121, #44, .T. ) ;
#283 = CALENDAR_DATE ( 2015, 17, 6 ) ;
#284 = ORGANIZATION ( 'UNSPECIFIED', 'UNSPECIFIED', '' ) ;
#285 = ORIENTED_EDGE ( 'NONE', *, *, #309, .F. ) ;
#286 = CIRCLE ( 'NONE', #141, 12.44999999999999800 ) ;
#287 = FACE_OUTER_BOUND ( 'NONE', #35, .T. ) ;
#288 = ADVANCED_FACE ( 'NONE', ( #109 ), #138, .F. ) ;
#289 = EDGE_CURVE ( 'NONE', #277, #270, #179, .T. ) ;
#290 = ORIENTED_EDGE ( 'NONE', *, *, #289, .F. ) ;
#291 = CC_DESIGN_PERSON_AND_ORGANIZATION_ASSIGNMENT ( #273, #187, ( #243 ) ) ;
#292 = ORIENTED_EDGE ( 'NONE', *, *, #136, .T. ) ;
#293 = LINE ( 'NONE', #302, #255 ) ;
#294 = VECTOR ( 'NONE', #262, 1000.000000000000200 ) ;
#295 = ORIENTED_EDGE ( 'NONE', *, *, #23, .F. ) ;
#296 = VERTEX_POINT ( 'NONE', #29 ) ;
#297 = DIRECTION ( 'NONE',  ( -0.0000000000000000000, -0.0000000000000000000, 1.000000000000000000 ) ) ;
#298 = AXIS2_PLACEMENT_3D ( 'NONE', #67, #162, #124 ) ;
#299 = PERSON_AND_ORGANIZATION ( #198, #284 ) ;
#300 = ORIENTED_EDGE ( 'NONE', *, *, #63, .F. ) ;
#301 = EDGE_LOOP ( 'NONE', ( #199, #250, #195, #166 ) ) ;
#302 = CARTESIAN_POINT ( 'NONE',  ( 12.69999999999999900, 0.0000000000000000000, -2.585658327635132400 ) ) ;
#303 = CARTESIAN_POINT ( 'NONE',  ( 0.0000000000000000000, 0.0000000000000000000, -2.585658327635132400 ) ) ;
#304 = CC_DESIGN_PERSON_AND_ORGANIZATION_ASSIGNMENT ( #268, #181, ( #243 ) ) ;
#305 = CARTESIAN_POINT ( 'NONE',  ( -12.69999999999999900, 1.555301434917138400E-015, 5.565267677687606900 ) ) ;
#306 = LOCAL_TIME ( 16, 52, 52.00000000000000000, #147 ) ;
#307 = ADVANCED_FACE ( 'NONE', ( #287 ), #148, .T. ) ;
#308 = CLOSED_SHELL ( 'NONE', ( #184, #307, #95, #72, #288, #53, #214, #154, #256 ) ) ;
#309 = EDGE_CURVE ( 'NONE', #142, #277, #59, .T. ) ;
#310 = AXIS2_PLACEMENT_3D ( 'NONE', #251, #43, #280 ) ;
#311 = CARTESIAN_POINT ( 'NONE',  ( 0.0000000000000000000, 0.0000000000000000000, 5.585658327635131900 ) ) ;
#312 = CARTESIAN_POINT ( 'NONE',  ( 12.44999999999999800, 0.0000000000000000000, -5.585658327635132800 ) ) ;
#313 = DIRECTION ( 'NONE',  ( 0.0000000000000000000, 0.0000000000000000000, 1.000000000000000000 ) ) ;
#314 = APPROVAL_STATUS ( 'not_yet_approved' ) ;
#315 = PERSON_AND_ORGANIZATION_ROLE ( 'design_owner' ) ;
#316 = SECURITY_CLASSIFICATION ( '', '', #2 ) ;
#317 = CARTESIAN_POINT ( 'NONE',  ( 0.0000000000000000000, 0.0000000000000000000, 11.21434167236486700 ) ) ;
#318 = COORDINATED_UNIVERSAL_TIME_OFFSET ( 5, 0, .BEHIND. ) ;
#319 = CARTESIAN_POINT ( 'NONE',  ( -1.543044877186913600E-015, -12.59991761103072100, 5.585658327635131900 ) ) ;
#320 = DATE_TIME_ROLE ( 'creation_date' ) ;
#321 = DIRECTION ( 'NONE',  ( -1.000000000000000000, 0.0000000000000000000, 0.0000000000000000000 ) ) ;
ENDSEC;
END-ISO-10303-21;
