ISO-10303-21;
HEADER;
FILE_DESCRIPTION (( 'STEP AP203' ),
    '1' );
FILE_NAME ('43627_Default.step',
    '2017-04-12T17:16:38',
    ( '' ),
    ( '' ),
    'SwSTEP 2.0',
    'SolidWorks 2016',
    '' );
FILE_SCHEMA (( 'CONFIG_CONTROL_DESIGN' ));
ENDSEC;

DATA;
#1 = DIRECTION ( 'NONE',  ( 0.0000000000000000000, 0.0000000000000000000, 1.000000000000000000 ) ) ;
#2 = VERTEX_POINT ( 'NONE', #80 ) ;
#3 = APPLICATION_PROTOCOL_DEFINITION ( 'international standard', 'config_control_design', 1994, #59 ) ;
#4 = DATE_TIME_ROLE ( 'classification_date' ) ;
#5 = ORIENTED_EDGE ( 'NONE', *, *, #141, .F. ) ;
#6 = LOCAL_TIME ( 13, 16, 38.00000000000000000, #70 ) ;
#7 = EDGE_CURVE ( 'NONE', #48, #120, #22, .T. ) ;
#8 = PERSON_AND_ORGANIZATION ( #113, #164 ) ;
#9 =( NAMED_UNIT ( * ) SI_UNIT ( $, .STERADIAN. ) SOLID_ANGLE_UNIT ( ) );
#10 = CC_DESIGN_PERSON_AND_ORGANIZATION_ASSIGNMENT ( #94, #62, ( #78 ) ) ;
#11 = EDGE_LOOP ( 'NONE', ( #76, #108 ) ) ;
#12 = FACE_OUTER_BOUND ( 'NONE', #122, .T. ) ;
#13 = DIRECTION ( 'NONE',  ( 1.000000000000000000, 0.0000000000000000000, -0.0000000000000000000 ) ) ;
#14 = DATE_AND_TIME ( #83, #81 ) ;
#15 = ORIENTED_EDGE ( 'NONE', *, *, #42, .F. ) ;
#16 = EDGE_CURVE ( 'NONE', #140, #2, #163, .T. ) ;
#17 = CARTESIAN_POINT ( 'NONE',  ( 0.0000000000000000000, 0.0000000000000000000, -0.2500000000000000000 ) ) ;
#18 = DIRECTION ( 'NONE',  ( 0.0000000000000000000, 0.0000000000000000000, 1.000000000000000000 ) ) ;
#19 = APPROVAL_PERSON_ORGANIZATION ( #52, #24, #131 ) ;
#20 = DIRECTION ( 'NONE',  ( -0.0000000000000000000, -0.0000000000000000000, -1.000000000000000000 ) ) ;
#21 = PRODUCT_DEFINITION ( 'UNKNOWN', '', #61, #136 ) ;
#22 = LINE ( 'NONE', #104, #84 ) ;
#23 = EDGE_LOOP ( 'NONE', ( #116, #154, #150, #32 ) ) ;
#24 = APPROVAL ( #56, 'UNSPECIFIED' ) ;
#25 = EDGE_CURVE ( 'NONE', #140, #48, #60, .T. ) ;
#26 = DIRECTION ( 'NONE',  ( 1.000000000000000000, 0.0000000000000000000, 0.0000000000000000000 ) ) ;
#27 = CALENDAR_DATE ( 2017, 12, 4 ) ;
#28 = APPROVAL ( #162, 'UNSPECIFIED' ) ;
#29 = DIRECTION ( 'NONE',  ( 0.0000000000000000000, 0.0000000000000000000, 1.000000000000000000 ) ) ;
#30 = DIRECTION ( 'NONE',  ( 1.000000000000000000, 0.0000000000000000000, 0.0000000000000000000 ) ) ;
#31 = APPROVAL_DATE_TIME ( #92, #28 ) ;
#32 = ORIENTED_EDGE ( 'NONE', *, *, #167, .T. ) ;
#33 = COORDINATED_UNIVERSAL_TIME_OFFSET ( 5, 0, .BEHIND. ) ;
#34 = FACE_OUTER_BOUND ( 'NONE', #23, .T. ) ;
#35 = CARTESIAN_POINT ( 'NONE',  ( 0.0000000000000000000, 0.0000000000000000000, 0.2500000000000000000 ) ) ;
#36 = CC_DESIGN_APPROVAL ( #28, ( #21 ) ) ;
#37 = LOCAL_TIME ( 13, 16, 38.00000000000000000, #97 ) ;
#38 = ADVANCED_FACE ( 'NONE', ( #34 ), #123, .T. ) ;
#39 = PRODUCT_RELATED_PRODUCT_CATEGORY ( 'detail', '', ( #78 ) ) ;
#40 =( LENGTH_UNIT ( ) NAMED_UNIT ( * ) SI_UNIT ( .MILLI., .METRE. ) );
#41 = PERSON_AND_ORGANIZATION ( #113, #164 ) ;
#42 = EDGE_CURVE ( 'NONE', #120, #2, #96, .T. ) ;
#43 = CC_DESIGN_PERSON_AND_ORGANIZATION_ASSIGNMENT ( #8, #69, ( #21 ) ) ;
#44 = ADVANCED_FACE ( 'NONE', ( #51 ), #168, .T. ) ;
#45 = PLANE ( 'NONE',  #87 ) ;
#46 =( NAMED_UNIT ( * ) PLANE_ANGLE_UNIT ( ) SI_UNIT ( $, .RADIAN. ) );
#47 = APPROVAL_DATE_TIME ( #111, #153 ) ;
#48 = VERTEX_POINT ( 'NONE', #110 ) ;
#49 = APPROVAL_DATE_TIME ( #129, #24 ) ;
#50 = CARTESIAN_POINT ( 'NONE',  ( 0.0000000000000000000, 0.0000000000000000000, -0.2500000000000000000 ) ) ;
#51 = FACE_OUTER_BOUND ( 'NONE', #102, .T. ) ;
#52 = PERSON_AND_ORGANIZATION ( #113, #164 ) ;
#53 = ORIENTED_EDGE ( 'NONE', *, *, #167, .F. ) ;
#54 = DATE_AND_TIME ( #132, #37 ) ;
#55 = CC_DESIGN_DATE_AND_TIME_ASSIGNMENT ( #54, #57, ( #21 ) ) ;
#56 = APPROVAL_STATUS ( 'not_yet_approved' ) ;
#57 = DATE_TIME_ROLE ( 'creation_date' ) ;
#58 = LOCAL_TIME ( 13, 16, 38.00000000000000000, #124 ) ;
#59 = APPLICATION_CONTEXT ( 'configuration controlled 3d designs of mechanical parts and assemblies' ) ;
#60 = CIRCLE ( 'NONE', #65, 1.250000000000000000 ) ;
#61 = PRODUCT_DEFINITION_FORMATION_WITH_SPECIFIED_SOURCE ( 'ANY', '', #78, .NOT_KNOWN. ) ;
#62 = PERSON_AND_ORGANIZATION_ROLE ( 'design_owner' ) ;
#63 = DIRECTION ( 'NONE',  ( -1.000000000000000000, 0.0000000000000000000, 0.0000000000000000000 ) ) ;
#64 = CALENDAR_DATE ( 2017, 12, 4 ) ;
#65 = AXIS2_PLACEMENT_3D ( 'NONE', #156, #117, #72 ) ;
#66 = PRODUCT_DEFINITION_SHAPE ( 'NONE', 'NONE',  #21 ) ;
#67 = APPROVAL_ROLE ( '' ) ;
#68 = CC_DESIGN_APPROVAL ( #24, ( #147 ) ) ;
#69 = PERSON_AND_ORGANIZATION_ROLE ( 'creator' ) ;
#70 = COORDINATED_UNIVERSAL_TIME_OFFSET ( 5, 0, .BEHIND. ) ;
#71 = DIRECTION ( 'NONE',  ( -1.000000000000000000, 0.0000000000000000000, 0.0000000000000000000 ) ) ;
#72 = DIRECTION ( 'NONE',  ( 1.000000000000000000, 0.0000000000000000000, 0.0000000000000000000 ) ) ;
#73 = CARTESIAN_POINT ( 'NONE',  ( 0.0000000000000000000, 0.0000000000000000000, 0.2500000000000000000 ) ) ;
#74 = SECURITY_CLASSIFICATION_LEVEL ( 'unclassified' ) ;
#75 = CC_DESIGN_PERSON_AND_ORGANIZATION_ASSIGNMENT ( #133, #161, ( #61 ) ) ;
#76 = ORIENTED_EDGE ( 'NONE', *, *, #25, .T. ) ;
#77 = PERSON_AND_ORGANIZATION ( #113, #164 ) ;
#78 = PRODUCT ( '43627_Default', '43627_Default', '', ( #119 ) ) ;
#79 = CC_DESIGN_PERSON_AND_ORGANIZATION_ASSIGNMENT ( #77, #148, ( #61 ) ) ;
#80 = CARTESIAN_POINT ( 'NONE',  ( -1.250000000000000000, 0.0000000000000000000, -0.2500000000000000000 ) ) ;
#81 = LOCAL_TIME ( 13, 16, 38.00000000000000000, #106 ) ;
#82 = DIRECTION ( 'NONE',  ( 1.000000000000000000, 0.0000000000000000000, 0.0000000000000000000 ) ) ;
#83 = CALENDAR_DATE ( 2017, 12, 4 ) ;
#84 = VECTOR ( 'NONE', #126, 1000.000000000000000 ) ;
#85 = CIRCLE ( 'NONE', #115, 1.250000000000000000 ) ;
#86 = FACE_OUTER_BOUND ( 'NONE', #11, .T. ) ;
#87 = AXIS2_PLACEMENT_3D ( 'NONE', #73, #18, #13 ) ;
#88 = APPLICATION_CONTEXT ( 'configuration controlled 3d designs of mechanical parts and assemblies' ) ;
#89 = CC_DESIGN_DATE_AND_TIME_ASSIGNMENT ( #14, #4, ( #147 ) ) ;
#90 = CARTESIAN_POINT ( 'NONE',  ( -1.250000000000000000, 0.0000000000000000000, 0.2500000000000000000 ) ) ;
#91 = DIRECTION ( 'NONE',  ( 1.000000000000000000, 0.0000000000000000000, 0.0000000000000000000 ) ) ;
#92 = DATE_AND_TIME ( #64, #103 ) ;
#93 = PERSON_AND_ORGANIZATION_ROLE ( 'classification_officer' ) ;
#94 = PERSON_AND_ORGANIZATION ( #113, #164 ) ;
#95 = CARTESIAN_POINT ( 'NONE',  ( 1.250000000000000000, 1.530808498934191600E-016, -0.2500000000000000000 ) ) ;
#96 = CIRCLE ( 'NONE', #170, 1.250000000000000000 ) ;
#97 = COORDINATED_UNIVERSAL_TIME_OFFSET ( 5, 0, .BEHIND. ) ;
#98 = DIRECTION ( 'NONE',  ( -0.0000000000000000000, -0.0000000000000000000, -1.000000000000000000 ) ) ;
#99 = ORIENTED_EDGE ( 'NONE', *, *, #42, .T. ) ;
#100 = PLANE ( 'NONE',  #158 ) ;
#101 = PERSON_AND_ORGANIZATION ( #113, #164 ) ;
#102 = EDGE_LOOP ( 'NONE', ( #5, #171, #99, #118 ) ) ;
#103 = LOCAL_TIME ( 13, 16, 38.00000000000000000, #33 ) ;
#104 = CARTESIAN_POINT ( 'NONE',  ( 1.250000000000000000, 1.530808498934191600E-016, 0.2500000000000000000 ) ) ;
#105 = CARTESIAN_POINT ( 'NONE',  ( 0.0000000000000000000, 0.0000000000000000000, 0.0000000000000000000 ) ) ;
#106 = COORDINATED_UNIVERSAL_TIME_OFFSET ( 5, 0, .BEHIND. ) ;
#107 = APPROVAL_STATUS ( 'not_yet_approved' ) ;
#108 = ORIENTED_EDGE ( 'NONE', *, *, #141, .T. ) ;
#109 = APPLICATION_PROTOCOL_DEFINITION ( 'international standard', 'config_control_design', 1994, #88 ) ;
#110 = CARTESIAN_POINT ( 'NONE',  ( 1.250000000000000000, 1.530808498934191600E-016, 0.2500000000000000000 ) ) ;
#111 = DATE_AND_TIME ( #142, #6 ) ;
#112 = DIRECTION ( 'NONE',  ( 0.0000000000000000000, 0.0000000000000000000, 1.000000000000000000 ) ) ;
#113 = PERSON ( 'UNSPECIFIED', 'UNSPECIFIED', 'UNSPECIFIED', ('UNSPECIFIED'), ('UNSPECIFIED'), ('UNSPECIFIED') ) ;
#114 = MANIFOLD_SOLID_BREP ( 'Boss-Extrude1', #165 ) ;
#115 = AXIS2_PLACEMENT_3D ( 'NONE', #35, #29, #82 ) ;
#116 = ORIENTED_EDGE ( 'NONE', *, *, #7, .F. ) ;
#117 = DIRECTION ( 'NONE',  ( 0.0000000000000000000, 0.0000000000000000000, 1.000000000000000000 ) ) ;
#118 = ORIENTED_EDGE ( 'NONE', *, *, #16, .F. ) ;
#119 = MECHANICAL_CONTEXT ( 'NONE', #59, 'mechanical' ) ;
#120 = VERTEX_POINT ( 'NONE', #95 ) ;
#121 = AXIS2_PLACEMENT_3D ( 'NONE', #145, #20, #71 ) ;
#122 = EDGE_LOOP ( 'NONE', ( #53, #15 ) ) ;
#123 = CYLINDRICAL_SURFACE ( 'NONE', #121, 1.250000000000000000 ) ;
#124 = COORDINATED_UNIVERSAL_TIME_OFFSET ( 5, 0, .BEHIND. ) ;
#125 = ADVANCED_FACE ( 'NONE', ( #12 ), #100, .F. ) ;
#126 = DIRECTION ( 'NONE',  ( -0.0000000000000000000, -0.0000000000000000000, -1.000000000000000000 ) ) ;
#127 = CC_DESIGN_PERSON_AND_ORGANIZATION_ASSIGNMENT ( #41, #93, ( #147 ) ) ;
#128 = APPROVAL_PERSON_ORGANIZATION ( #169, #28, #67 ) ;
#129 = DATE_AND_TIME ( #27, #58 ) ;
#130 = DIRECTION ( 'NONE',  ( 0.0000000000000000000, 0.0000000000000000000, 1.000000000000000000 ) ) ;
#131 = APPROVAL_ROLE ( '' ) ;
#132 = CALENDAR_DATE ( 2017, 12, 4 ) ;
#133 = PERSON_AND_ORGANIZATION ( #113, #164 ) ;
#134 = CARTESIAN_POINT ( 'NONE',  ( 0.0000000000000000000, 0.0000000000000000000, 0.2500000000000000000 ) ) ;
#135 = DIRECTION ( 'NONE',  ( 0.0000000000000000000, 0.0000000000000000000, 1.000000000000000000 ) ) ;
#136 = DESIGN_CONTEXT ( 'detailed design', #88, 'design' ) ;
#137 = SHAPE_DEFINITION_REPRESENTATION ( #66, #144 ) ;
#138 = APPROVAL_ROLE ( '' ) ;
#139 =( GEOMETRIC_REPRESENTATION_CONTEXT ( 3 ) GLOBAL_UNCERTAINTY_ASSIGNED_CONTEXT ( ( #157 ) ) GLOBAL_UNIT_ASSIGNED_CONTEXT ( ( #40, #46, #9 ) ) REPRESENTATION_CONTEXT ( 'NONE', 'WORKASPACE' ) );
#140 = VERTEX_POINT ( 'NONE', #152 ) ;
#141 = EDGE_CURVE ( 'NONE', #48, #140, #85, .T. ) ;
#142 = CALENDAR_DATE ( 2017, 12, 4 ) ;
#143 = VECTOR ( 'NONE', #155, 1000.000000000000000 ) ;
#144 = ADVANCED_BREP_SHAPE_REPRESENTATION ( '43627_Default', ( #114, #172 ), #139 ) ;
#145 = CARTESIAN_POINT ( 'NONE',  ( 0.0000000000000000000, 0.0000000000000000000, 0.2500000000000000000 ) ) ;
#146 = CC_DESIGN_SECURITY_CLASSIFICATION ( #147, ( #61 ) ) ;
#147 = SECURITY_CLASSIFICATION ( '', '', #74 ) ;
#148 = PERSON_AND_ORGANIZATION_ROLE ( 'creator' ) ;
#149 = AXIS2_PLACEMENT_3D ( 'NONE', #17, #1, #91 ) ;
#150 = ORIENTED_EDGE ( 'NONE', *, *, #16, .T. ) ;
#151 = CARTESIAN_POINT ( 'NONE',  ( 0.0000000000000000000, 0.0000000000000000000, -0.2500000000000000000 ) ) ;
#152 = CARTESIAN_POINT ( 'NONE',  ( -1.250000000000000000, 0.0000000000000000000, 0.2500000000000000000 ) ) ;
#153 = APPROVAL ( #107, 'UNSPECIFIED' ) ;
#154 = ORIENTED_EDGE ( 'NONE', *, *, #25, .F. ) ;
#155 = DIRECTION ( 'NONE',  ( -0.0000000000000000000, -0.0000000000000000000, -1.000000000000000000 ) ) ;
#156 = CARTESIAN_POINT ( 'NONE',  ( 0.0000000000000000000, 0.0000000000000000000, 0.2500000000000000000 ) ) ;
#157 = UNCERTAINTY_MEASURE_WITH_UNIT (LENGTH_MEASURE( 1.000000000000000100E-005 ), #40, 'distance_accuracy_value', 'NONE');
#158 = AXIS2_PLACEMENT_3D ( 'NONE', #50, #135, #160 ) ;
#159 = AXIS2_PLACEMENT_3D ( 'NONE', #134, #98, #63 ) ;
#160 = DIRECTION ( 'NONE',  ( 1.000000000000000000, 0.0000000000000000000, -0.0000000000000000000 ) ) ;
#161 = PERSON_AND_ORGANIZATION_ROLE ( 'design_supplier' ) ;
#162 = APPROVAL_STATUS ( 'not_yet_approved' ) ;
#163 = LINE ( 'NONE', #90, #143 ) ;
#164 = ORGANIZATION ( 'UNSPECIFIED', 'UNSPECIFIED', '' ) ;
#165 = CLOSED_SHELL ( 'NONE', ( #44, #38, #173, #125 ) ) ;
#166 = CIRCLE ( 'NONE', #149, 1.250000000000000000 ) ;
#167 = EDGE_CURVE ( 'NONE', #2, #120, #166, .T. ) ;
#168 = CYLINDRICAL_SURFACE ( 'NONE', #159, 1.250000000000000000 ) ;
#169 = PERSON_AND_ORGANIZATION ( #113, #164 ) ;
#170 = AXIS2_PLACEMENT_3D ( 'NONE', #151, #112, #26 ) ;
#171 = ORIENTED_EDGE ( 'NONE', *, *, #7, .T. ) ;
#172 = AXIS2_PLACEMENT_3D ( 'NONE', #105, #130, #30 ) ;
#173 = ADVANCED_FACE ( 'NONE', ( #86 ), #45, .T. ) ;
#174 = CC_DESIGN_APPROVAL ( #153, ( #61 ) ) ;
#175 = APPROVAL_PERSON_ORGANIZATION ( #101, #153, #138 ) ;
ENDSEC;
END-ISO-10303-21;
