ISO-10303-21;
HEADER;
FILE_DESCRIPTION (( 'STEP AP203' ),
    '1' );
FILE_NAME ('Web Model 68377.STEP',
    '2017-01-31T19:51:38',
    ( '' ),
    ( '' ),
    'SwSTEP 2.0',
    'SolidWorks 2016',
    '' );
FILE_SCHEMA (( 'CONFIG_CONTROL_DESIGN' ));
ENDSEC;

DATA;
#1 = LINE ( 'NONE', #207, #236 ) ;
#2 = PRODUCT_DEFINITION_SHAPE ( 'NONE', 'NONE',  #19 ) ;
#3 = CC_DESIGN_PERSON_AND_ORGANIZATION_ASSIGNMENT ( #38, #119, ( #153 ) ) ;
#4 = CLOSED_SHELL ( 'NONE', ( #213, #175, #47, #13, #117, #105 ) ) ;
#5 = ORIENTED_EDGE ( 'NONE', *, *, #91, .T. ) ;
#6 = DIRECTION ( 'NONE',  ( 0.0000000000000000000, 0.0000000000000000000, 1.000000000000000000 ) ) ;
#7 = SHAPE_DEFINITION_REPRESENTATION ( #2, #208 ) ;
#8 = ORIENTED_EDGE ( 'NONE', *, *, #200, .T. ) ;
#9 = DIRECTION ( 'NONE',  ( -1.000000000000000000, -9.251858538542971600E-017, 0.0000000000000000000 ) ) ;
#10 = DIRECTION ( 'NONE',  ( 1.000000000000000000, 1.387778780781445700E-016, -0.0000000000000000000 ) ) ;
#11 = VECTOR ( 'NONE', #116, 1000.000000000000000 ) ;
#12 = CARTESIAN_POINT ( 'NONE',  ( 0.0000000000000000000, 0.0000000000000000000, 0.0000000000000000000 ) ) ;
#13 = ADVANCED_FACE ( 'NONE', ( #163 ), #228, .F. ) ;
#14 = CARTESIAN_POINT ( 'NONE',  ( -37.50000000000000000, -25.00000000000000700, 3.000000000000000000 ) ) ;
#15 = ORIENTED_EDGE ( 'NONE', *, *, #200, .F. ) ;
#16 = DIRECTION ( 'NONE',  ( 1.000000000000000000, 0.0000000000000000000, 0.0000000000000000000 ) ) ;
#17 = EDGE_CURVE ( 'NONE', #168, #129, #124, .T. ) ;
#18 = SECURITY_CLASSIFICATION_LEVEL ( 'unclassified' ) ;
#19 = PRODUCT_DEFINITION ( 'UNKNOWN', '', #153, #158 ) ;
#20 = EDGE_LOOP ( 'NONE', ( #8, #189, #225, #179 ) ) ;
#21 = CC_DESIGN_PERSON_AND_ORGANIZATION_ASSIGNMENT ( #142, #69, ( #127 ) ) ;
#22 = LOCAL_TIME ( 14, 51, 38.00000000000000000, #70 ) ;
#23 = VERTEX_POINT ( 'NONE', #166 ) ;
#24 = CARTESIAN_POINT ( 'NONE',  ( 37.50000000000000000, -24.99999999999999600, 3.000000000000000000 ) ) ;
#25 = EDGE_CURVE ( 'NONE', #23, #57, #90, .T. ) ;
#26 = ORGANIZATION ( 'UNSPECIFIED', 'UNSPECIFIED', '' ) ;
#27 = CARTESIAN_POINT ( 'NONE',  ( 37.50000000000000000, -24.99999999999999600, 3.000000000000000000 ) ) ;
#28 = CC_DESIGN_SECURITY_CLASSIFICATION ( #46, ( #153 ) ) ;
#29 = DIRECTION ( 'NONE',  ( 1.000000000000000000, 1.387778780781445700E-016, -0.0000000000000000000 ) ) ;
#30 = CARTESIAN_POINT ( 'NONE',  ( 37.50000000000000000, 25.00000000000000000, 3.000000000000000000 ) ) ;
#31 = DIRECTION ( 'NONE',  ( 1.000000000000000000, 0.0000000000000000000, -0.0000000000000000000 ) ) ;
#32 = COORDINATED_UNIVERSAL_TIME_OFFSET ( 5, 0, .BEHIND. ) ;
#33 = DIRECTION ( 'NONE',  ( -1.000000000000000000, 0.0000000000000000000, -0.0000000000000000000 ) ) ;
#34 = CC_DESIGN_DATE_AND_TIME_ASSIGNMENT ( #112, #122, ( #19 ) ) ;
#35 = LINE ( 'NONE', #196, #220 ) ;
#36 = EDGE_LOOP ( 'NONE', ( #146, #237, #107, #15 ) ) ;
#37 = CC_DESIGN_APPROVAL ( #104, ( #19 ) ) ;
#38 = PERSON_AND_ORGANIZATION ( #111, #26 ) ;
#39 = VECTOR ( 'NONE', #214, 1000.000000000000000 ) ;
#40 = ORIENTED_EDGE ( 'NONE', *, *, #110, .T. ) ;
#41 = CC_DESIGN_PERSON_AND_ORGANIZATION_ASSIGNMENT ( #121, #176, ( #19 ) ) ;
#42 = DIRECTION ( 'NONE',  ( -1.000000000000000000, 0.0000000000000000000, 0.0000000000000000000 ) ) ;
#43 = EDGE_CURVE ( 'NONE', #198, #125, #1, .T. ) ;
#44 = APPROVAL ( #49, 'UNSPECIFIED' ) ;
#45 = CARTESIAN_POINT ( 'NONE',  ( 37.50000000000000000, 25.00000000000000000, 3.000000000000000000 ) ) ;
#46 = SECURITY_CLASSIFICATION ( '', '', #18 ) ;
#47 = ADVANCED_FACE ( 'NONE', ( #140 ), #78, .F. ) ;
#48 = DATE_AND_TIME ( #152, #221 ) ;
#49 = APPROVAL_STATUS ( 'not_yet_approved' ) ;
#50 = ORIENTED_EDGE ( 'NONE', *, *, #150, .T. ) ;
#51 = MECHANICAL_CONTEXT ( 'NONE', #157, 'mechanical' ) ;
#52 = APPROVAL_ROLE ( '' ) ;
#53 = LINE ( 'NONE', #30, #39 ) ;
#54 = ORIENTED_EDGE ( 'NONE', *, *, #150, .F. ) ;
#55 = EDGE_CURVE ( 'NONE', #198, #23, #159, .T. ) ;
#56 = VECTOR ( 'NONE', #99, 1000.000000000000000 ) ;
#57 = VERTEX_POINT ( 'NONE', #59 ) ;
#58 = APPROVAL_DATE_TIME ( #48, #104 ) ;
#59 = CARTESIAN_POINT ( 'NONE',  ( -37.50000000000000000, 24.99999999999999300, 0.0000000000000000000 ) ) ;
#60 = DIRECTION ( 'NONE',  ( -0.0000000000000000000, -0.0000000000000000000, -1.000000000000000000 ) ) ;
#61 = CARTESIAN_POINT ( 'NONE',  ( 37.50000000000000000, 25.00000000000000000, 3.000000000000000000 ) ) ;
#62 = DIRECTION ( 'NONE',  ( -1.000000000000000000, 0.0000000000000000000, -0.0000000000000000000 ) ) ;
#63 = FACE_OUTER_BOUND ( 'NONE', #74, .T. ) ;
#64 = DIRECTION ( 'NONE',  ( -0.0000000000000000000, 0.0000000000000000000, -1.000000000000000000 ) ) ;
#65 = DIRECTION ( 'NONE',  ( -1.000000000000000000, -1.387778780781445400E-016, 0.0000000000000000000 ) ) ;
#66 = FACE_OUTER_BOUND ( 'NONE', #36, .T. ) ;
#67 = EDGE_LOOP ( 'NONE', ( #88, #156, #186, #136 ) ) ;
#68 = APPROVAL_STATUS ( 'not_yet_approved' ) ;
#69 = PERSON_AND_ORGANIZATION_ROLE ( 'design_owner' ) ;
#70 = COORDINATED_UNIVERSAL_TIME_OFFSET ( 5, 0, .BEHIND. ) ;
#71 = AXIS2_PLACEMENT_3D ( 'NONE', #14, #97, #33 ) ;
#72 = LOCAL_TIME ( 14, 51, 38.00000000000000000, #234 ) ;
#73 = COORDINATED_UNIVERSAL_TIME_OFFSET ( 5, 0, .BEHIND. ) ;
#74 = EDGE_LOOP ( 'NONE', ( #102, #94, #54, #98 ) ) ;
#75 = DIRECTION ( 'NONE',  ( 1.000000000000000000, 9.251858538542970300E-017, 0.0000000000000000000 ) ) ;
#76 = CARTESIAN_POINT ( 'NONE',  ( 37.50000000000000000, 25.00000000000000000, 0.0000000000000000000 ) ) ;
#77 = CC_DESIGN_APPROVAL ( #44, ( #46 ) ) ;
#78 = PLANE ( 'NONE',  #180 ) ;
#79 = DIRECTION ( 'NONE',  ( 0.0000000000000000000, 0.0000000000000000000, -1.000000000000000000 ) ) ;
#80 = CARTESIAN_POINT ( 'NONE',  ( 37.50000000000000000, 25.00000000000000000, 0.0000000000000000000 ) ) ;
#81 = LINE ( 'NONE', #155, #11 ) ;
#82 = VERTEX_POINT ( 'NONE', #187 ) ;
#83 = EDGE_LOOP ( 'NONE', ( #50, #40, #216, #222 ) ) ;
#84 = AXIS2_PLACEMENT_3D ( 'NONE', #149, #147, #75 ) ;
#85 = PERSON_AND_ORGANIZATION_ROLE ( 'creator' ) ;
#86 = PERSON_AND_ORGANIZATION ( #111, #26 ) ;
#87 = LINE ( 'NONE', #232, #56 ) ;
#88 = ORIENTED_EDGE ( 'NONE', *, *, #25, .T. ) ;
#89 = LOCAL_TIME ( 14, 51, 38.00000000000000000, #184 ) ;
#90 = LINE ( 'NONE', #76, #173 ) ;
#91 = EDGE_CURVE ( 'NONE', #123, #82, #101, .T. ) ;
#92 = APPROVAL ( #199, 'UNSPECIFIED' ) ;
#93 = VECTOR ( 'NONE', #190, 1000.000000000000000 ) ;
#94 = ORIENTED_EDGE ( 'NONE', *, *, #17, .F. ) ;
#95 = CARTESIAN_POINT ( 'NONE',  ( -37.50000000000000000, 24.99999999999999300, 3.000000000000000000 ) ) ;
#96 = LINE ( 'NONE', #195, #164 ) ;
#97 = DIRECTION ( 'NONE',  ( 0.0000000000000000000, 0.0000000000000000000, -1.000000000000000000 ) ) ;
#98 = ORIENTED_EDGE ( 'NONE', *, *, #134, .T. ) ;
#99 = DIRECTION ( 'NONE',  ( 0.0000000000000000000, -1.000000000000000000, 0.0000000000000000000 ) ) ;
#100 = PERSON_AND_ORGANIZATION_ROLE ( 'classification_officer' ) ;
#101 = LINE ( 'NONE', #24, #93 ) ;
#102 = ORIENTED_EDGE ( 'NONE', *, *, #141, .T. ) ;
#103 = APPROVAL_ROLE ( '' ) ;
#104 = APPROVAL ( #68, 'UNSPECIFIED' ) ;
#105 = ADVANCED_FACE ( 'NONE', ( #66 ), #226, .T. ) ;
#106 = CALENDAR_DATE ( 2017, 31, 1 ) ;
#107 = ORIENTED_EDGE ( 'NONE', *, *, #202, .F. ) ;
#108 = DATE_AND_TIME ( #223, #89 ) ;
#109 = APPROVAL_PERSON_ORGANIZATION ( #113, #92, #160 ) ;
#110 = EDGE_CURVE ( 'NONE', #168, #123, #192, .T. ) ;
#111 = PERSON ( 'UNSPECIFIED', 'UNSPECIFIED', 'UNSPECIFIED', ('UNSPECIFIED'), ('UNSPECIFIED'), ('UNSPECIFIED') ) ;
#112 = DATE_AND_TIME ( #162, #215 ) ;
#113 = PERSON_AND_ORGANIZATION ( #111, #26 ) ;
#114 = DIRECTION ( 'NONE',  ( 0.0000000000000000000, 0.0000000000000000000, 1.000000000000000000 ) ) ;
#115 = CC_DESIGN_PERSON_AND_ORGANIZATION_ASSIGNMENT ( #86, #100, ( #46 ) ) ;
#116 = DIRECTION ( 'NONE',  ( -0.0000000000000000000, -0.0000000000000000000, -1.000000000000000000 ) ) ;
#117 = ADVANCED_FACE ( 'NONE', ( #197 ), #171, .F. ) ;
#118 = FACE_OUTER_BOUND ( 'NONE', #20, .T. ) ;
#119 = PERSON_AND_ORGANIZATION_ROLE ( 'design_supplier' ) ;
#120 = DATE_AND_TIME ( #205, #72 ) ;
#121 = PERSON_AND_ORGANIZATION ( #111, #26 ) ;
#122 = DATE_TIME_ROLE ( 'creation_date' ) ;
#123 = VERTEX_POINT ( 'NONE', #27 ) ;
#124 = LINE ( 'NONE', #167, #193 ) ;
#125 = VERTEX_POINT ( 'NONE', #191 ) ;
#126 = DIRECTION ( 'NONE',  ( -1.000000000000000000, -9.251858538542971600E-017, 0.0000000000000000000 ) ) ;
#127 = PRODUCT ( 'Web Model 68377', 'Web Model 68377', '', ( #51 ) ) ;
#128 = CARTESIAN_POINT ( 'NONE',  ( -37.50000000000000000, -25.00000000000000700, 0.0000000000000000000 ) ) ;
#129 = VERTEX_POINT ( 'NONE', #170 ) ;
#130 = DIRECTION ( 'NONE',  ( -1.387778780781445400E-016, 1.000000000000000000, 0.0000000000000000000 ) ) ;
#131 = PRODUCT_RELATED_PRODUCT_CATEGORY ( 'detail', '', ( #127 ) ) ;
#132 =( NAMED_UNIT ( * ) PLANE_ANGLE_UNIT ( ) SI_UNIT ( $, .RADIAN. ) );
#133 =( NAMED_UNIT ( * ) SI_UNIT ( $, .STERADIAN. ) SOLID_ANGLE_UNIT ( ) );
#134 = EDGE_CURVE ( 'NONE', #125, #57, #81, .T. ) ;
#135 = PERSON_AND_ORGANIZATION ( #111, #26 ) ;
#136 = ORIENTED_EDGE ( 'NONE', *, *, #55, .T. ) ;
#137 = APPLICATION_PROTOCOL_DEFINITION ( 'international standard', 'config_control_design', 1994, #157 ) ;
#138 = CC_DESIGN_DATE_AND_TIME_ASSIGNMENT ( #108, #219, ( #46 ) ) ;
#139 = VECTOR ( 'NONE', #169, 1000.000000000000000 ) ;
#140 = FACE_OUTER_BOUND ( 'NONE', #143, .T. ) ;
#141 = EDGE_CURVE ( 'NONE', #57, #129, #96, .T. ) ;
#142 = PERSON_AND_ORGANIZATION ( #111, #26 ) ;
#143 = EDGE_LOOP ( 'NONE', ( #183, #204, #231, #5 ) ) ;
#144 = AXIS2_PLACEMENT_3D ( 'NONE', #212, #130, #65 ) ;
#145 = VECTOR ( 'NONE', #10, 1000.000000000000000 ) ;
#146 = ORIENTED_EDGE ( 'NONE', *, *, #141, .F. ) ;
#147 = DIRECTION ( 'NONE',  ( 9.251858538542970300E-017, -1.000000000000000000, 0.0000000000000000000 ) ) ;
#148 = DIRECTION ( 'NONE',  ( -0.0000000000000000000, -0.0000000000000000000, -1.000000000000000000 ) ) ;
#149 = CARTESIAN_POINT ( 'NONE',  ( 37.50000000000000000, 25.00000000000000000, 3.000000000000000000 ) ) ;
#150 = EDGE_CURVE ( 'NONE', #125, #168, #87, .T. ) ;
#151 = PLANE ( 'NONE',  #144 ) ;
#152 = CALENDAR_DATE ( 2017, 31, 1 ) ;
#153 = PRODUCT_DEFINITION_FORMATION_WITH_SPECIFIED_SOURCE ( 'ANY', '', #127, .NOT_KNOWN. ) ;
#154 =( LENGTH_UNIT ( ) NAMED_UNIT ( * ) SI_UNIT ( .MILLI., .METRE. ) );
#155 = CARTESIAN_POINT ( 'NONE',  ( -37.50000000000000000, 24.99999999999999300, 3.000000000000000000 ) ) ;
#156 = ORIENTED_EDGE ( 'NONE', *, *, #134, .F. ) ;
#157 = APPLICATION_CONTEXT ( 'configuration controlled 3d designs of mechanical parts and assemblies' ) ;
#158 = DESIGN_CONTEXT ( 'detailed design', #218, 'design' ) ;
#159 = LINE ( 'NONE', #61, #178 ) ;
#160 = APPROVAL_ROLE ( '' ) ;
#161 =( GEOMETRIC_REPRESENTATION_CONTEXT ( 3 ) GLOBAL_UNCERTAINTY_ASSIGNED_CONTEXT ( ( #181 ) ) GLOBAL_UNIT_ASSIGNED_CONTEXT ( ( #154, #132, #133 ) ) REPRESENTATION_CONTEXT ( 'NONE', 'WORKASPACE' ) );
#162 = CALENDAR_DATE ( 2017, 31, 1 ) ;
#163 = FACE_OUTER_BOUND ( 'NONE', #67, .T. ) ;
#164 = VECTOR ( 'NONE', #233, 1000.000000000000000 ) ;
#165 = AXIS2_PLACEMENT_3D ( 'NONE', #128, #79, #62 ) ;
#166 = CARTESIAN_POINT ( 'NONE',  ( 37.50000000000000000, 25.00000000000000000, 0.0000000000000000000 ) ) ;
#167 = CARTESIAN_POINT ( 'NONE',  ( -37.50000000000000000, -25.00000000000000700, 3.000000000000000000 ) ) ;
#168 = VERTEX_POINT ( 'NONE', #235 ) ;
#169 = DIRECTION ( 'NONE',  ( -0.0000000000000000000, 1.000000000000000000, -0.0000000000000000000 ) ) ;
#170 = CARTESIAN_POINT ( 'NONE',  ( -37.50000000000000000, -25.00000000000000700, 0.0000000000000000000 ) ) ;
#171 = PLANE ( 'NONE',  #71 ) ;
#172 = APPROVAL_PERSON_ORGANIZATION ( #224, #104, #103 ) ;
#173 = VECTOR ( 'NONE', #126, 1000.000000000000000 ) ;
#174 = CC_DESIGN_PERSON_AND_ORGANIZATION_ASSIGNMENT ( #135, #85, ( #153 ) ) ;
#175 = ADVANCED_FACE ( 'NONE', ( #118 ), #151, .F. ) ;
#176 = PERSON_AND_ORGANIZATION_ROLE ( 'creator' ) ;
#177 = APPROVAL_PERSON_ORGANIZATION ( #182, #44, #52 ) ;
#178 = VECTOR ( 'NONE', #148, 1000.000000000000000 ) ;
#179 = ORIENTED_EDGE ( 'NONE', *, *, #17, .T. ) ;
#180 = AXIS2_PLACEMENT_3D ( 'NONE', #188, #42, #6 ) ;
#181 = UNCERTAINTY_MEASURE_WITH_UNIT (LENGTH_MEASURE( 1.000000000000000100E-005 ), #154, 'distance_accuracy_value', 'NONE');
#182 = PERSON_AND_ORGANIZATION ( #111, #26 ) ;
#183 = ORIENTED_EDGE ( 'NONE', *, *, #202, .T. ) ;
#184 = COORDINATED_UNIVERSAL_TIME_OFFSET ( 5, 0, .BEHIND. ) ;
#185 = LINE ( 'NONE', #80, #139 ) ;
#186 = ORIENTED_EDGE ( 'NONE', *, *, #43, .F. ) ;
#187 = CARTESIAN_POINT ( 'NONE',  ( 37.50000000000000000, -24.99999999999999600, 0.0000000000000000000 ) ) ;
#188 = CARTESIAN_POINT ( 'NONE',  ( 37.50000000000000000, 25.00000000000000000, 3.000000000000000000 ) ) ;
#189 = ORIENTED_EDGE ( 'NONE', *, *, #91, .F. ) ;
#190 = DIRECTION ( 'NONE',  ( -0.0000000000000000000, -0.0000000000000000000, -1.000000000000000000 ) ) ;
#191 = CARTESIAN_POINT ( 'NONE',  ( -37.50000000000000000, 24.99999999999999300, 3.000000000000000000 ) ) ;
#192 = LINE ( 'NONE', #194, #145 ) ;
#193 = VECTOR ( 'NONE', #60, 1000.000000000000000 ) ;
#194 = CARTESIAN_POINT ( 'NONE',  ( 37.50000000000000000, -24.99999999999999600, 3.000000000000000000 ) ) ;
#195 = CARTESIAN_POINT ( 'NONE',  ( -37.50000000000000000, 24.99999999999999300, 0.0000000000000000000 ) ) ;
#196 = CARTESIAN_POINT ( 'NONE',  ( 37.50000000000000000, -24.99999999999999600, 0.0000000000000000000 ) ) ;
#197 = FACE_OUTER_BOUND ( 'NONE', #83, .T. ) ;
#198 = VERTEX_POINT ( 'NONE', #45 ) ;
#199 = APPROVAL_STATUS ( 'not_yet_approved' ) ;
#200 = EDGE_CURVE ( 'NONE', #129, #82, #35, .T. ) ;
#201 = APPLICATION_PROTOCOL_DEFINITION ( 'international standard', 'config_control_design', 1994, #218 ) ;
#202 = EDGE_CURVE ( 'NONE', #82, #23, #185, .T. ) ;
#203 = MANIFOLD_SOLID_BREP ( 'Extrude1', #4 ) ;
#204 = ORIENTED_EDGE ( 'NONE', *, *, #55, .F. ) ;
#205 = CALENDAR_DATE ( 2017, 31, 1 ) ;
#206 = DATE_AND_TIME ( #106, #22 ) ;
#207 = CARTESIAN_POINT ( 'NONE',  ( 37.50000000000000000, 25.00000000000000000, 3.000000000000000000 ) ) ;
#208 = ADVANCED_BREP_SHAPE_REPRESENTATION ( 'Web Model 68377', ( #203, #217 ), #161 ) ;
#209 = AXIS2_PLACEMENT_3D ( 'NONE', #95, #31, #64 ) ;
#210 = APPROVAL_DATE_TIME ( #206, #92 ) ;
#211 = PLANE ( 'NONE',  #209 ) ;
#212 = CARTESIAN_POINT ( 'NONE',  ( 37.50000000000000000, -24.99999999999999600, 3.000000000000000000 ) ) ;
#213 = ADVANCED_FACE ( 'NONE', ( #63 ), #211, .F. ) ;
#214 = DIRECTION ( 'NONE',  ( -0.0000000000000000000, 1.000000000000000000, -0.0000000000000000000 ) ) ;
#215 = LOCAL_TIME ( 14, 51, 38.00000000000000000, #32 ) ;
#216 = ORIENTED_EDGE ( 'NONE', *, *, #229, .T. ) ;
#217 = AXIS2_PLACEMENT_3D ( 'NONE', #12, #114, #16 ) ;
#218 = APPLICATION_CONTEXT ( 'configuration controlled 3d designs of mechanical parts and assemblies' ) ;
#219 = DATE_TIME_ROLE ( 'classification_date' ) ;
#220 = VECTOR ( 'NONE', #29, 1000.000000000000000 ) ;
#221 = LOCAL_TIME ( 14, 51, 38.00000000000000000, #73 ) ;
#222 = ORIENTED_EDGE ( 'NONE', *, *, #43, .T. ) ;
#223 = CALENDAR_DATE ( 2017, 31, 1 ) ;
#224 = PERSON_AND_ORGANIZATION ( #111, #26 ) ;
#225 = ORIENTED_EDGE ( 'NONE', *, *, #110, .F. ) ;
#226 = PLANE ( 'NONE',  #165 ) ;
#227 = CC_DESIGN_APPROVAL ( #92, ( #153 ) ) ;
#228 = PLANE ( 'NONE',  #84 ) ;
#229 = EDGE_CURVE ( 'NONE', #123, #198, #53, .T. ) ;
#230 = APPROVAL_DATE_TIME ( #120, #44 ) ;
#231 = ORIENTED_EDGE ( 'NONE', *, *, #229, .F. ) ;
#232 = CARTESIAN_POINT ( 'NONE',  ( -37.50000000000000000, 24.99999999999999300, 3.000000000000000000 ) ) ;
#233 = DIRECTION ( 'NONE',  ( 0.0000000000000000000, -1.000000000000000000, 0.0000000000000000000 ) ) ;
#234 = COORDINATED_UNIVERSAL_TIME_OFFSET ( 5, 0, .BEHIND. ) ;
#235 = CARTESIAN_POINT ( 'NONE',  ( -37.50000000000000000, -25.00000000000000700, 3.000000000000000000 ) ) ;
#236 = VECTOR ( 'NONE', #9, 1000.000000000000000 ) ;
#237 = ORIENTED_EDGE ( 'NONE', *, *, #25, .F. ) ;
ENDSEC;
END-ISO-10303-21;
