ISO-10303-21;
HEADER;
FILE_DESCRIPTION (( 'STEP AP203' ),
    '1' );
FILE_NAME ('Web Model 43368_20873.step',
    '2022-03-16T14:22:23',
    ( '' ),
    ( '' ),
    'SwSTEP 2.0',
    'SolidWorks 2021',
    '' );
FILE_SCHEMA (( 'CONFIG_CONTROL_DESIGN' ));
ENDSEC;

DATA;
#1 = CALENDAR_DATE ( 2022, 16, 3 ) ;
#2 = DIRECTION ( 'NONE',  ( 0.000000000000000000, 0.000000000000000000, 1.000000000000000000 ) ) ;
#3 =( NAMED_UNIT ( * ) SI_UNIT ( $, .STERADIAN. ) SOLID_ANGLE_UNIT ( ) );
#4 = AXIS2_PLACEMENT_3D ( 'NONE', #95, #82, #44 ) ;
#5 = PRODUCT_DEFINITION ( 'UNKNOWN', '', #41, #89 ) ;
#6 = FACE_OUTER_BOUND ( 'NONE', #175, .T. ) ;
#7 = MANIFOLD_SOLID_BREP ( 'Boss-Extrude1', #92 ) ;
#8 = PERSON_AND_ORGANIZATION ( #119, #25 ) ;
#9 = ADVANCED_BREP_SHAPE_REPRESENTATION ( 'Web Model 43368_20873', ( #7, #172 ), #132 ) ;
#10 = APPLICATION_CONTEXT ( 'configuration controlled 3d designs of mechanical parts and assemblies' ) ;
#11 = DATE_AND_TIME ( #146, #101 ) ;
#12 = EDGE_CURVE ( 'NONE', #91, #66, #129, .T. ) ;
#13 = APPROVAL_PERSON_ORGANIZATION ( #8, #87, #169 ) ;
#14 = ORIENTED_EDGE ( 'NONE', *, *, #83, .T. ) ;
#15 = ORIENTED_EDGE ( 'NONE', *, *, #51, .F. ) ;
#16 = DIRECTION ( 'NONE',  ( 1.000000000000000000, 0.000000000000000000, -0.000000000000000000 ) ) ;
#17 = ORIENTED_EDGE ( 'NONE', *, *, #40, .T. ) ;
#18 = LINE ( 'NONE', #33, #128 ) ;
#19 = FACE_OUTER_BOUND ( 'NONE', #50, .T. ) ;
#20 = CIRCLE ( 'NONE', #49, 10.00000000000000000 ) ;
#21 = PERSON_AND_ORGANIZATION_ROLE ( 'design_owner' ) ;
#22 = PLANE ( 'NONE',  #131 ) ;
#23 = PRODUCT_RELATED_PRODUCT_CATEGORY ( 'detail', '', ( #104 ) ) ;
#24 = DIRECTION ( 'NONE',  ( 0.000000000000000000, 0.000000000000000000, 1.000000000000000000 ) ) ;
#25 = ORGANIZATION ( 'UNSPECIFIED', 'UNSPECIFIED', '' ) ;
#26 = DIRECTION ( 'NONE',  ( 1.000000000000000000, 0.000000000000000000, -0.000000000000000000 ) ) ;
#27 = DATE_AND_TIME ( #86, #139 ) ;
#28 = AXIS2_PLACEMENT_3D ( 'NONE', #68, #124, #138 ) ;
#29 = ADVANCED_FACE ( 'NONE', ( #161 ), #150, .T. ) ;
#30 = CALENDAR_DATE ( 2022, 16, 3 ) ;
#31 = PERSON_AND_ORGANIZATION ( #119, #25 ) ;
#32 = ORIENTED_EDGE ( 'NONE', *, *, #12, .T. ) ;
#33 = CARTESIAN_POINT ( 'NONE',  ( 10.00000000000000000, 1.224646799147353256E-15, 0.5000000000000000000 ) ) ;
#34 = DIRECTION ( 'NONE',  ( 1.000000000000000000, 0.000000000000000000, 0.000000000000000000 ) ) ;
#35 = EDGE_LOOP ( 'NONE', ( #151, #17, #141, #78 ) ) ;
#36 = CIRCLE ( 'NONE', #159, 10.00000000000000000 ) ;
#37 = DIRECTION ( 'NONE',  ( -0.000000000000000000, -0.000000000000000000, -1.000000000000000000 ) ) ;
#38 = CARTESIAN_POINT ( 'NONE',  ( 0.000000000000000000, 0.000000000000000000, 0.000000000000000000 ) ) ;
#39 = APPROVAL_DATE_TIME ( #154, #143 ) ;
#40 = EDGE_CURVE ( 'NONE', #140, #106, #18, .T. ) ;
#41 = PRODUCT_DEFINITION_FORMATION_WITH_SPECIFIED_SOURCE ( 'ANY', '', #104, .NOT_KNOWN. ) ;
#42 = CC_DESIGN_PERSON_AND_ORGANIZATION_ASSIGNMENT ( #168, #148, ( #41 ) ) ;
#43 = CARTESIAN_POINT ( 'NONE',  ( 0.000000000000000000, 0.000000000000000000, 0.5000000000000000000 ) ) ;
#44 = DIRECTION ( 'NONE',  ( 1.000000000000000000, 0.000000000000000000, 0.000000000000000000 ) ) ;
#45 = DATE_AND_TIME ( #90, #53 ) ;
#46 = DATE_AND_TIME ( #30, #121 ) ;
#47 = UNCERTAINTY_MEASURE_WITH_UNIT (LENGTH_MEASURE( 1.000000000000000082E-05 ), #136, 'distance_accuracy_value', 'NONE');
#48 = PERSON_AND_ORGANIZATION ( #119, #25 ) ;
#49 = AXIS2_PLACEMENT_3D ( 'NONE', #171, #160, #34 ) ;
#50 = EDGE_LOOP ( 'NONE', ( #110, #64 ) ) ;
#51 = EDGE_CURVE ( 'NONE', #91, #140, #20, .T. ) ;
#52 = CC_DESIGN_APPROVAL ( #143, ( #5 ) ) ;
#53 = LOCAL_TIME ( 10, 22, 23.00000000000000000, #72 ) ;
#54 = CARTESIAN_POINT ( 'NONE',  ( 10.00000000000000000, 1.224646799147353256E-15, 0.000000000000000000 ) ) ;
#55 = MECHANICAL_CONTEXT ( 'NONE', #10, 'mechanical' ) ;
#56 = CC_DESIGN_APPROVAL ( #87, ( #41 ) ) ;
#57 = APPROVAL_ROLE ( '' ) ;
#58 = DATE_TIME_ROLE ( 'classification_date' ) ;
#59 = CC_DESIGN_PERSON_AND_ORGANIZATION_ASSIGNMENT ( #125, #21, ( #104 ) ) ;
#60 = APPROVAL_PERSON_ORGANIZATION ( #48, #108, #57 ) ;
#61 = PRODUCT_DEFINITION_SHAPE ( 'NONE', 'NONE',  #5 ) ;
#62 = CIRCLE ( 'NONE', #162, 10.00000000000000000 ) ;
#63 = ADVANCED_FACE ( 'NONE', ( #6 ), #155, .T. ) ;
#64 = ORIENTED_EDGE ( 'NONE', *, *, #118, .F. ) ;
#65 = CARTESIAN_POINT ( 'NONE',  ( 0.000000000000000000, 0.000000000000000000, 0.5000000000000000000 ) ) ;
#66 = VERTEX_POINT ( 'NONE', #100 ) ;
#67 =( NAMED_UNIT ( * ) PLANE_ANGLE_UNIT ( ) SI_UNIT ( $, .RADIAN. ) );
#68 = CARTESIAN_POINT ( 'NONE',  ( 0.000000000000000000, 0.000000000000000000, 0.5000000000000000000 ) ) ;
#69 = DIRECTION ( 'NONE',  ( 1.000000000000000000, 0.000000000000000000, 0.000000000000000000 ) ) ;
#70 = SECURITY_CLASSIFICATION ( '', '', #115 ) ;
#71 = CARTESIAN_POINT ( 'NONE',  ( 0.000000000000000000, 0.000000000000000000, 0.000000000000000000 ) ) ;
#72 = COORDINATED_UNIVERSAL_TIME_OFFSET ( 5, 0, .BEHIND. ) ;
#73 = CC_DESIGN_PERSON_AND_ORGANIZATION_ASSIGNMENT ( #157, #147, ( #70 ) ) ;
#74 = CIRCLE ( 'NONE', #4, 10.00000000000000000 ) ;
#75 = PERSON_AND_ORGANIZATION_ROLE ( 'creator' ) ;
#76 = CARTESIAN_POINT ( 'NONE',  ( -10.00000000000000000, 0.000000000000000000, 0.5000000000000000000 ) ) ;
#77 = CC_DESIGN_PERSON_AND_ORGANIZATION_ASSIGNMENT ( #134, #96, ( #5 ) ) ;
#78 = ORIENTED_EDGE ( 'NONE', *, *, #12, .F. ) ;
#79 = APPROVAL_ROLE ( '' ) ;
#80 = APPROVAL_PERSON_ORGANIZATION ( #153, #143, #79 ) ;
#81 = APPLICATION_PROTOCOL_DEFINITION ( 'international standard', 'config_control_design', 1994, #126 ) ;
#82 = DIRECTION ( 'NONE',  ( 0.000000000000000000, 0.000000000000000000, 1.000000000000000000 ) ) ;
#83 = EDGE_CURVE ( 'NONE', #140, #91, #62, .T. ) ;
#84 = LOCAL_TIME ( 10, 22, 23.00000000000000000, #133 ) ;
#85 = CARTESIAN_POINT ( 'NONE',  ( -10.00000000000000000, 0.000000000000000000, 0.5000000000000000000 ) ) ;
#86 = CALENDAR_DATE ( 2022, 16, 3 ) ;
#87 = APPROVAL ( #103, 'UNSPECIFIED' ) ;
#88 = COORDINATED_UNIVERSAL_TIME_OFFSET ( 5, 0, .BEHIND. ) ;
#89 = DESIGN_CONTEXT ( 'detailed design', #126, 'design' ) ;
#90 = CALENDAR_DATE ( 2022, 16, 3 ) ;
#91 = VERTEX_POINT ( 'NONE', #85 ) ;
#92 = CLOSED_SHELL ( 'NONE', ( #170, #63, #29, #113 ) ) ;
#93 = EDGE_LOOP ( 'NONE', ( #173, #14 ) ) ;
#94 = DIRECTION ( 'NONE',  ( 1.000000000000000000, 0.000000000000000000, 0.000000000000000000 ) ) ;
#95 = CARTESIAN_POINT ( 'NONE',  ( 0.000000000000000000, 0.000000000000000000, 0.000000000000000000 ) ) ;
#96 = PERSON_AND_ORGANIZATION_ROLE ( 'creator' ) ;
#97 = EDGE_CURVE ( 'NONE', #66, #106, #74, .T. ) ;
#98 = CYLINDRICAL_SURFACE ( 'NONE', #28, 10.00000000000000000 ) ;
#99 = CC_DESIGN_PERSON_AND_ORGANIZATION_ASSIGNMENT ( #31, #75, ( #41 ) ) ;
#100 = CARTESIAN_POINT ( 'NONE',  ( -10.00000000000000000, 0.000000000000000000, 0.000000000000000000 ) ) ;
#101 = LOCAL_TIME ( 10, 22, 23.00000000000000000, #105 ) ;
#102 = DATE_TIME_ROLE ( 'creation_date' ) ;
#103 = APPROVAL_STATUS ( 'not_yet_approved' ) ;
#104 = PRODUCT ( 'Web Model 43368_20873', 'Web Model 43368_20873', '', ( #55 ) ) ;
#105 = COORDINATED_UNIVERSAL_TIME_OFFSET ( 5, 0, .BEHIND. ) ;
#106 = VERTEX_POINT ( 'NONE', #54 ) ;
#107 = ORIENTED_EDGE ( 'NONE', *, *, #40, .F. ) ;
#108 = APPROVAL ( #127, 'UNSPECIFIED' ) ;
#109 = CC_DESIGN_SECURITY_CLASSIFICATION ( #70, ( #41 ) ) ;
#110 = ORIENTED_EDGE ( 'NONE', *, *, #97, .F. ) ;
#111 = APPLICATION_PROTOCOL_DEFINITION ( 'international standard', 'config_control_design', 1994, #10 ) ;
#112 = CARTESIAN_POINT ( 'NONE',  ( 0.000000000000000000, 0.000000000000000000, 0.000000000000000000 ) ) ;
#113 = ADVANCED_FACE ( 'NONE', ( #19 ), #22, .F. ) ;
#114 = FACE_OUTER_BOUND ( 'NONE', #35, .T. ) ;
#115 = SECURITY_CLASSIFICATION_LEVEL ( 'unclassified' ) ;
#116 = APPROVAL_DATE_TIME ( #27, #108 ) ;
#117 = SHAPE_DEFINITION_REPRESENTATION ( #61, #9 ) ;
#118 = EDGE_CURVE ( 'NONE', #106, #66, #36, .T. ) ;
#119 = PERSON ( 'UNSPECIFIED', 'UNSPECIFIED', 'UNSPECIFIED', ('UNSPECIFIED'), ('UNSPECIFIED'), ('UNSPECIFIED') ) ;
#120 = CC_DESIGN_DATE_AND_TIME_ASSIGNMENT ( #11, #102, ( #5 ) ) ;
#121 = LOCAL_TIME ( 10, 22, 23.00000000000000000, #167 ) ;
#122 = ORIENTED_EDGE ( 'NONE', *, *, #97, .T. ) ;
#123 = DIRECTION ( 'NONE',  ( -1.000000000000000000, 0.000000000000000000, 0.000000000000000000 ) ) ;
#124 = DIRECTION ( 'NONE',  ( -0.000000000000000000, -0.000000000000000000, -1.000000000000000000 ) ) ;
#125 = PERSON_AND_ORGANIZATION ( #119, #25 ) ;
#126 = APPLICATION_CONTEXT ( 'configuration controlled 3d designs of mechanical parts and assemblies' ) ;
#127 = APPROVAL_STATUS ( 'not_yet_approved' ) ;
#128 = VECTOR ( 'NONE', #37, 1000.000000000000000 ) ;
#129 = LINE ( 'NONE', #76, #149 ) ;
#130 = DIRECTION ( 'NONE',  ( 0.000000000000000000, 0.000000000000000000, 1.000000000000000000 ) ) ;
#131 = AXIS2_PLACEMENT_3D ( 'NONE', #71, #145, #26 ) ;
#132 =( GEOMETRIC_REPRESENTATION_CONTEXT ( 3 ) GLOBAL_UNCERTAINTY_ASSIGNED_CONTEXT ( ( #47 ) ) GLOBAL_UNIT_ASSIGNED_CONTEXT ( ( #136, #67, #3 ) ) REPRESENTATION_CONTEXT ( 'NONE', 'WORKASPACE' ) );
#133 = COORDINATED_UNIVERSAL_TIME_OFFSET ( 5, 0, .BEHIND. ) ;
#134 = PERSON_AND_ORGANIZATION ( #119, #25 ) ;
#135 = CC_DESIGN_DATE_AND_TIME_ASSIGNMENT ( #45, #58, ( #70 ) ) ;
#136 =( LENGTH_UNIT ( ) NAMED_UNIT ( * ) SI_UNIT ( .MILLI., .METRE. ) );
#137 = CARTESIAN_POINT ( 'NONE',  ( 10.00000000000000000, 1.224646799147353256E-15, 0.5000000000000000000 ) ) ;
#138 = DIRECTION ( 'NONE',  ( -1.000000000000000000, 0.000000000000000000, 0.000000000000000000 ) ) ;
#139 = LOCAL_TIME ( 10, 22, 23.00000000000000000, #88 ) ;
#140 = VERTEX_POINT ( 'NONE', #137 ) ;
#141 = ORIENTED_EDGE ( 'NONE', *, *, #118, .T. ) ;
#142 = APPROVAL_STATUS ( 'not_yet_approved' ) ;
#143 = APPROVAL ( #142, 'UNSPECIFIED' ) ;
#144 = AXIS2_PLACEMENT_3D ( 'NONE', #65, #130, #16 ) ;
#145 = DIRECTION ( 'NONE',  ( 0.000000000000000000, 0.000000000000000000, 1.000000000000000000 ) ) ;
#146 = CALENDAR_DATE ( 2022, 16, 3 ) ;
#147 = PERSON_AND_ORGANIZATION_ROLE ( 'classification_officer' ) ;
#148 = PERSON_AND_ORGANIZATION_ROLE ( 'design_supplier' ) ;
#149 = VECTOR ( 'NONE', #174, 1000.000000000000000 ) ;
#150 = PLANE ( 'NONE',  #144 ) ;
#151 = ORIENTED_EDGE ( 'NONE', *, *, #83, .F. ) ;
#152 = CC_DESIGN_APPROVAL ( #108, ( #70 ) ) ;
#153 = PERSON_AND_ORGANIZATION ( #119, #25 ) ;
#154 = DATE_AND_TIME ( #1, #84 ) ;
#155 = CYLINDRICAL_SURFACE ( 'NONE', #164, 10.00000000000000000 ) ;
#156 = CARTESIAN_POINT ( 'NONE',  ( 0.000000000000000000, 0.000000000000000000, 0.5000000000000000000 ) ) ;
#157 = PERSON_AND_ORGANIZATION ( #119, #25 ) ;
#158 = APPROVAL_DATE_TIME ( #46, #87 ) ;
#159 = AXIS2_PLACEMENT_3D ( 'NONE', #38, #165, #94 ) ;
#160 = DIRECTION ( 'NONE',  ( 0.000000000000000000, 0.000000000000000000, 1.000000000000000000 ) ) ;
#161 = FACE_OUTER_BOUND ( 'NONE', #93, .T. ) ;
#162 = AXIS2_PLACEMENT_3D ( 'NONE', #43, #2, #69 ) ;
#163 = DIRECTION ( 'NONE',  ( -0.000000000000000000, -0.000000000000000000, -1.000000000000000000 ) ) ;
#164 = AXIS2_PLACEMENT_3D ( 'NONE', #156, #163, #123 ) ;
#165 = DIRECTION ( 'NONE',  ( 0.000000000000000000, 0.000000000000000000, 1.000000000000000000 ) ) ;
#166 = DIRECTION ( 'NONE',  ( 1.000000000000000000, 0.000000000000000000, 0.000000000000000000 ) ) ;
#167 = COORDINATED_UNIVERSAL_TIME_OFFSET ( 5, 0, .BEHIND. ) ;
#168 = PERSON_AND_ORGANIZATION ( #119, #25 ) ;
#169 = APPROVAL_ROLE ( '' ) ;
#170 = ADVANCED_FACE ( 'NONE', ( #114 ), #98, .T. ) ;
#171 = CARTESIAN_POINT ( 'NONE',  ( 0.000000000000000000, 0.000000000000000000, 0.5000000000000000000 ) ) ;
#172 = AXIS2_PLACEMENT_3D ( 'NONE', #112, #24, #166 ) ;
#173 = ORIENTED_EDGE ( 'NONE', *, *, #51, .T. ) ;
#174 = DIRECTION ( 'NONE',  ( -0.000000000000000000, -0.000000000000000000, -1.000000000000000000 ) ) ;
#175 = EDGE_LOOP ( 'NONE', ( #107, #15, #32, #122 ) ) ;
ENDSEC;
END-ISO-10303-21;
