ISO-10303-21;
HEADER;
FILE_DESCRIPTION (( 'STEP AP203' ),
    '1' );
FILE_NAME ('Web Model 14961_14961.step',
    '2020-07-27T18:36:53',
    ( '' ),
    ( '' ),
    'SwSTEP 2.0',
    'SolidWorks 2018',
    '' );
FILE_SCHEMA (( 'CONFIG_CONTROL_DESIGN' ));
ENDSEC;

DATA;
#1 = AXIS2_PLACEMENT_3D ( 'NONE', #103, #115, #95 ) ;
#2 = VERTEX_POINT ( 'NONE', #67 ) ;
#3 = CARTESIAN_POINT ( 'NONE',  ( -1.000000000000000000, 0.0000000000000000000, 10.00000000000000000 ) ) ;
#4 = COORDINATED_UNIVERSAL_TIME_OFFSET ( 5, 0, .BEHIND. ) ;
#5 = CARTESIAN_POINT ( 'NONE',  ( 1.000000000000000000, 0.0000000000000000000, 0.0000000000000000000 ) ) ;
#6 = CARTESIAN_POINT ( 'NONE',  ( -1.000000000000000000, 0.0000000000000000000, 0.0000000000000000000 ) ) ;
#7 = APPROVAL ( #43, 'UNSPECIFIED' ) ;
#8 = DIRECTION ( 'NONE',  ( 1.000000000000000000, 0.0000000000000000000, 0.0000000000000000000 ) ) ;
#9 =( NAMED_UNIT ( * ) PLANE_ANGLE_UNIT ( ) SI_UNIT ( $, .RADIAN. ) );
#10 = APPLICATION_PROTOCOL_DEFINITION ( 'international standard', 'config_control_design', 1994, #61 ) ;
#11 = DATE_AND_TIME ( #84, #97 ) ;
#12 = ORIENTED_EDGE ( 'NONE', *, *, #18, .F. ) ;
#13 = ADVANCED_FACE ( 'NONE', ( #162 ), #83, .T. ) ;
#14 = ADVANCED_FACE ( 'NONE', ( #164 ), #17, .T. ) ;
#15 = DATE_AND_TIME ( #163, #62 ) ;
#16 = DATE_AND_TIME ( #130, #121 ) ;
#17 = CYLINDRICAL_SURFACE ( 'NONE', #35, 10.00000000000000000 ) ;
#18 = EDGE_CURVE ( 'NONE', #132, #31, #99, .T. ) ;
#19 = PRODUCT_DEFINITION_FORMATION_WITH_SPECIFIED_SOURCE ( 'ANY', '', #36, .NOT_KNOWN. ) ;
#20 = AXIS2_PLACEMENT_3D ( 'NONE', #6, #38, #102 ) ;
#21 = APPROVAL_PERSON_ORGANIZATION ( #170, #137, #60 ) ;
#22 = ORIENTED_EDGE ( 'NONE', *, *, #125, .F. ) ;
#23 = CC_DESIGN_APPROVAL ( #137, ( #100 ) ) ;
#24 = DIRECTION ( 'NONE',  ( 0.0000000000000000000, 0.0000000000000000000, 1.000000000000000000 ) ) ;
#25 = DIRECTION ( 'NONE',  ( -1.000000000000000000, -0.0000000000000000000, -0.0000000000000000000 ) ) ;
#26 = CARTESIAN_POINT ( 'NONE',  ( 0.0000000000000000000, 0.0000000000000000000, 0.0000000000000000000 ) ) ;
#27 =( NAMED_UNIT ( * ) SI_UNIT ( $, .STERADIAN. ) SOLID_ANGLE_UNIT ( ) );
#28 = EDGE_LOOP ( 'NONE', ( #57, #22, #66, #157 ) ) ;
#29 = DATE_TIME_ROLE ( 'creation_date' ) ;
#30 = AXIS2_PLACEMENT_3D ( 'NONE', #112, #41, #126 ) ;
#31 = VERTEX_POINT ( 'NONE', #127 ) ;
#32 = AXIS2_PLACEMENT_3D ( 'NONE', #26, #46, #174 ) ;
#33 = PRODUCT_DEFINITION_SHAPE ( 'NONE', 'NONE',  #100 ) ;
#34 = ORIENTED_EDGE ( 'NONE', *, *, #18, .T. ) ;
#35 = AXIS2_PLACEMENT_3D ( 'NONE', #82, #25, #44 ) ;
#36 = PRODUCT ( 'Web Model 14961_14961', 'Web Model 14961_14961', '', ( #63 ) ) ;
#37 = APPROVAL ( #145, 'UNSPECIFIED' ) ;
#38 = DIRECTION ( 'NONE',  ( 1.000000000000000000, 0.0000000000000000000, 0.0000000000000000000 ) ) ;
#39 = DIRECTION ( 'NONE',  ( -1.000000000000000000, -0.0000000000000000000, -0.0000000000000000000 ) ) ;
#40 = EDGE_CURVE ( 'NONE', #2, #101, #144, .T. ) ;
#41 = DIRECTION ( 'NONE',  ( 1.000000000000000000, 0.0000000000000000000, 0.0000000000000000000 ) ) ;
#42 = CARTESIAN_POINT ( 'NONE',  ( 1.000000000000000000, 0.0000000000000000000, 10.00000000000000000 ) ) ;
#43 = APPROVAL_STATUS ( 'not_yet_approved' ) ;
#44 = DIRECTION ( 'NONE',  ( 0.0000000000000000000, 0.0000000000000000000, 1.000000000000000000 ) ) ;
#45 = LOCAL_TIME ( 14, 36, 53.00000000000000000, #51 ) ;
#46 = DIRECTION ( 'NONE',  ( 0.0000000000000000000, 0.0000000000000000000, 1.000000000000000000 ) ) ;
#47 = ORIENTED_EDGE ( 'NONE', *, *, #128, .F. ) ;
#48 = PERSON_AND_ORGANIZATION_ROLE ( 'creator' ) ;
#49 = APPROVAL_ROLE ( '' ) ;
#50 = CC_DESIGN_PERSON_AND_ORGANIZATION_ASSIGNMENT ( #74, #146, ( #75 ) ) ;
#51 = COORDINATED_UNIVERSAL_TIME_OFFSET ( 5, 0, .BEHIND. ) ;
#52 = COORDINATED_UNIVERSAL_TIME_OFFSET ( 5, 0, .BEHIND. ) ;
#53 = EDGE_LOOP ( 'NONE', ( #172, #81 ) ) ;
#54 = AXIS2_PLACEMENT_3D ( 'NONE', #94, #8, #168 ) ;
#55 = COORDINATED_UNIVERSAL_TIME_OFFSET ( 5, 0, .BEHIND. ) ;
#56 = CALENDAR_DATE ( 2020, 27, 7 ) ;
#57 = ORIENTED_EDGE ( 'NONE', *, *, #58, .F. ) ;
#58 = EDGE_CURVE ( 'NONE', #132, #2, #175, .T. ) ;
#59 = ORGANIZATION ( 'UNSPECIFIED', 'UNSPECIFIED', '' ) ;
#60 = APPROVAL_ROLE ( '' ) ;
#61 = APPLICATION_CONTEXT ( 'configuration controlled 3d designs of mechanical parts and assemblies' ) ;
#62 = LOCAL_TIME ( 14, 36, 53.00000000000000000, #52 ) ;
#63 = MECHANICAL_CONTEXT ( 'NONE', #61, 'mechanical' ) ;
#64 = CC_DESIGN_PERSON_AND_ORGANIZATION_ASSIGNMENT ( #156, #118, ( #36 ) ) ;
#65 = MANIFOLD_SOLID_BREP ( 'Boss-Extrude1', #90 ) ;
#66 = ORIENTED_EDGE ( 'NONE', *, *, #128, .T. ) ;
#67 = CARTESIAN_POINT ( 'NONE',  ( -1.000000000000000000, 1.224646799147353256E-15, -10.00000000000000000 ) ) ;
#68 = FACE_OUTER_BOUND ( 'NONE', #53, .T. ) ;
#69 = DATE_TIME_ROLE ( 'classification_date' ) ;
#70 = EDGE_LOOP ( 'NONE', ( #136, #34 ) ) ;
#71 = APPROVAL_ROLE ( '' ) ;
#72 = FACE_OUTER_BOUND ( 'NONE', #86, .T. ) ;
#73 = AXIS2_PLACEMENT_3D ( 'NONE', #5, #166, #24 ) ;
#74 = PERSON_AND_ORGANIZATION ( #80, #59 ) ;
#75 = SECURITY_CLASSIFICATION ( '', '', #87 ) ;
#76 = ORIENTED_EDGE ( 'NONE', *, *, #40, .T. ) ;
#77 = EDGE_CURVE ( 'NONE', #101, #2, #139, .T. ) ;
#78 =( GEOMETRIC_REPRESENTATION_CONTEXT ( 3 ) GLOBAL_UNCERTAINTY_ASSIGNED_CONTEXT ( ( #123 ) ) GLOBAL_UNIT_ASSIGNED_CONTEXT ( ( #155, #9, #27 ) ) REPRESENTATION_CONTEXT ( 'NONE', 'WORKASPACE' ) );
#79 = ADVANCED_BREP_SHAPE_REPRESENTATION ( 'Web Model 14961_14961', ( #65, #32 ), #78 ) ;
#80 = PERSON ( 'UNSPECIFIED', 'UNSPECIFIED', 'UNSPECIFIED', ('UNSPECIFIED'), ('UNSPECIFIED'), ('UNSPECIFIED') ) ;
#81 = ORIENTED_EDGE ( 'NONE', *, *, #40, .F. ) ;
#82 = CARTESIAN_POINT ( 'NONE',  ( 1.000000000000000000, 0.0000000000000000000, 0.0000000000000000000 ) ) ;
#83 = PLANE ( 'NONE',  #54 ) ;
#84 = CALENDAR_DATE ( 2020, 27, 7 ) ;
#85 = CARTESIAN_POINT ( 'NONE',  ( 1.000000000000000000, 0.0000000000000000000, 0.0000000000000000000 ) ) ;
#86 = EDGE_LOOP ( 'NONE', ( #12, #110, #76, #47 ) ) ;
#87 = SECURITY_CLASSIFICATION_LEVEL ( 'unclassified' ) ;
#88 = CARTESIAN_POINT ( 'NONE',  ( 1.000000000000000000, 1.224646799147353256E-15, -10.00000000000000000 ) ) ;
#89 = CC_DESIGN_SECURITY_CLASSIFICATION ( #75, ( #19 ) ) ;
#90 = CLOSED_SHELL ( 'NONE', ( #119, #14, #13, #160 ) ) ;
#91 = DATE_AND_TIME ( #117, #108 ) ;
#92 = APPROVAL_DATE_TIME ( #91, #7 ) ;
#93 = APPROVAL_DATE_TIME ( #15, #137 ) ;
#94 = CARTESIAN_POINT ( 'NONE',  ( 1.000000000000000000, 0.0000000000000000000, 0.0000000000000000000 ) ) ;
#95 = DIRECTION ( 'NONE',  ( 0.0000000000000000000, 0.0000000000000000000, -1.000000000000000000 ) ) ;
#96 = CIRCLE ( 'NONE', #1, 10.00000000000000000 ) ;
#97 = LOCAL_TIME ( 14, 36, 53.00000000000000000, #138 ) ;
#98 = PERSON_AND_ORGANIZATION ( #80, #59 ) ;
#99 = CIRCLE ( 'NONE', #141, 10.00000000000000000 ) ;
#100 = PRODUCT_DEFINITION ( 'UNKNOWN', '', #19, #159 ) ;
#101 = VERTEX_POINT ( 'NONE', #3 ) ;
#102 = DIRECTION ( 'NONE',  ( 0.0000000000000000000, 0.0000000000000000000, -1.000000000000000000 ) ) ;
#103 = CARTESIAN_POINT ( 'NONE',  ( 1.000000000000000000, 0.0000000000000000000, 0.0000000000000000000 ) ) ;
#104 = DIRECTION ( 'NONE',  ( 1.000000000000000000, 0.0000000000000000000, 0.0000000000000000000 ) ) ;
#105 = APPROVAL_PERSON_ORGANIZATION ( #143, #37, #71 ) ;
#106 = VECTOR ( 'NONE', #39, 1000.000000000000000 ) ;
#107 = CC_DESIGN_DATE_AND_TIME_ASSIGNMENT ( #149, #69, ( #75 ) ) ;
#108 = LOCAL_TIME ( 14, 36, 53.00000000000000000, #4 ) ;
#109 = VECTOR ( 'NONE', #152, 1000.000000000000000 ) ;
#110 = ORIENTED_EDGE ( 'NONE', *, *, #58, .T. ) ;
#111 = DIRECTION ( 'NONE',  ( 1.000000000000000000, 0.0000000000000000000, 0.0000000000000000000 ) ) ;
#112 = CARTESIAN_POINT ( 'NONE',  ( -1.000000000000000000, 0.0000000000000000000, 0.0000000000000000000 ) ) ;
#113 = APPROVAL_PERSON_ORGANIZATION ( #150, #7, #49 ) ;
#114 = PERSON_AND_ORGANIZATION_ROLE ( 'design_supplier' ) ;
#115 = DIRECTION ( 'NONE',  ( 1.000000000000000000, 0.0000000000000000000, 0.0000000000000000000 ) ) ;
#116 = CC_DESIGN_APPROVAL ( #37, ( #75 ) ) ;
#117 = CALENDAR_DATE ( 2020, 27, 7 ) ;
#118 = PERSON_AND_ORGANIZATION_ROLE ( 'design_owner' ) ;
#119 = ADVANCED_FACE ( 'NONE', ( #72 ), #167, .T. ) ;
#120 = AXIS2_PLACEMENT_3D ( 'NONE', #131, #104, #129 ) ;
#121 = LOCAL_TIME ( 14, 36, 53.00000000000000000, #55 ) ;
#122 = LINE ( 'NONE', #42, #109 ) ;
#123 = UNCERTAINTY_MEASURE_WITH_UNIT (LENGTH_MEASURE( 1.000000000000000082E-05 ), #155, 'distance_accuracy_value', 'NONE');
#124 = PERSON_AND_ORGANIZATION ( #80, #59 ) ;
#125 = EDGE_CURVE ( 'NONE', #31, #132, #96, .T. ) ;
#126 = DIRECTION ( 'NONE',  ( 0.0000000000000000000, 0.0000000000000000000, -1.000000000000000000 ) ) ;
#127 = CARTESIAN_POINT ( 'NONE',  ( 1.000000000000000000, 0.0000000000000000000, 10.00000000000000000 ) ) ;
#128 = EDGE_CURVE ( 'NONE', #31, #101, #122, .T. ) ;
#129 = DIRECTION ( 'NONE',  ( 0.0000000000000000000, 0.0000000000000000000, -1.000000000000000000 ) ) ;
#130 = CALENDAR_DATE ( 2020, 27, 7 ) ;
#131 = CARTESIAN_POINT ( 'NONE',  ( -1.000000000000000000, 0.0000000000000000000, 0.0000000000000000000 ) ) ;
#132 = VERTEX_POINT ( 'NONE', #88 ) ;
#133 = APPLICATION_PROTOCOL_DEFINITION ( 'international standard', 'config_control_design', 1994, #173 ) ;
#134 = CC_DESIGN_PERSON_AND_ORGANIZATION_ASSIGNMENT ( #147, #48, ( #19 ) ) ;
#135 = APPROVAL_DATE_TIME ( #11, #37 ) ;
#136 = ORIENTED_EDGE ( 'NONE', *, *, #125, .T. ) ;
#137 = APPROVAL ( #142, 'UNSPECIFIED' ) ;
#138 = COORDINATED_UNIVERSAL_TIME_OFFSET ( 5, 0, .BEHIND. ) ;
#139 = CIRCLE ( 'NONE', #30, 10.00000000000000000 ) ;
#140 = CC_DESIGN_PERSON_AND_ORGANIZATION_ASSIGNMENT ( #98, #114, ( #19 ) ) ;
#141 = AXIS2_PLACEMENT_3D ( 'NONE', #85, #111, #169 ) ;
#142 = APPROVAL_STATUS ( 'not_yet_approved' ) ;
#143 = PERSON_AND_ORGANIZATION ( #80, #59 ) ;
#144 = CIRCLE ( 'NONE', #20, 10.00000000000000000 ) ;
#145 = APPROVAL_STATUS ( 'not_yet_approved' ) ;
#146 = PERSON_AND_ORGANIZATION_ROLE ( 'classification_officer' ) ;
#147 = PERSON_AND_ORGANIZATION ( #80, #59 ) ;
#148 = CC_DESIGN_PERSON_AND_ORGANIZATION_ASSIGNMENT ( #124, #158, ( #100 ) ) ;
#149 = DATE_AND_TIME ( #56, #45 ) ;
#150 = PERSON_AND_ORGANIZATION ( #80, #59 ) ;
#151 = SHAPE_DEFINITION_REPRESENTATION ( #33, #79 ) ;
#152 = DIRECTION ( 'NONE',  ( -1.000000000000000000, -0.0000000000000000000, -0.0000000000000000000 ) ) ;
#153 = PRODUCT_RELATED_PRODUCT_CATEGORY ( 'detail', '', ( #36 ) ) ;
#154 = CARTESIAN_POINT ( 'NONE',  ( 1.000000000000000000, 1.224646799147353256E-15, -10.00000000000000000 ) ) ;
#155 =( LENGTH_UNIT ( ) NAMED_UNIT ( * ) SI_UNIT ( .MILLI., .METRE. ) );
#156 = PERSON_AND_ORGANIZATION ( #80, #59 ) ;
#157 = ORIENTED_EDGE ( 'NONE', *, *, #77, .T. ) ;
#158 = PERSON_AND_ORGANIZATION_ROLE ( 'creator' ) ;
#159 = DESIGN_CONTEXT ( 'detailed design', #173, 'design' ) ;
#160 = ADVANCED_FACE ( 'NONE', ( #68 ), #171, .F. ) ;
#161 = CC_DESIGN_APPROVAL ( #7, ( #19 ) ) ;
#162 = FACE_OUTER_BOUND ( 'NONE', #70, .T. ) ;
#163 = CALENDAR_DATE ( 2020, 27, 7 ) ;
#164 = FACE_OUTER_BOUND ( 'NONE', #28, .T. ) ;
#165 = CC_DESIGN_DATE_AND_TIME_ASSIGNMENT ( #16, #29, ( #100 ) ) ;
#166 = DIRECTION ( 'NONE',  ( -1.000000000000000000, -0.0000000000000000000, -0.0000000000000000000 ) ) ;
#167 = CYLINDRICAL_SURFACE ( 'NONE', #73, 10.00000000000000000 ) ;
#168 = DIRECTION ( 'NONE',  ( 0.0000000000000000000, 0.0000000000000000000, -1.000000000000000000 ) ) ;
#169 = DIRECTION ( 'NONE',  ( 0.0000000000000000000, 0.0000000000000000000, -1.000000000000000000 ) ) ;
#170 = PERSON_AND_ORGANIZATION ( #80, #59 ) ;
#171 = PLANE ( 'NONE',  #120 ) ;
#172 = ORIENTED_EDGE ( 'NONE', *, *, #77, .F. ) ;
#173 = APPLICATION_CONTEXT ( 'configuration controlled 3d designs of mechanical parts and assemblies' ) ;
#174 = DIRECTION ( 'NONE',  ( 1.000000000000000000, 0.0000000000000000000, 0.0000000000000000000 ) ) ;
#175 = LINE ( 'NONE', #154, #106 ) ;
ENDSEC;
END-ISO-10303-21;
