ISO-10303-21;
HEADER;
FILE_DESCRIPTION (( 'STEP AP203' ),
    '1' );
FILE_NAME ('Web Model 68523_17197.step',
    '2021-04-14T19:36:56',
    ( '' ),
    ( '' ),
    'SwSTEP 2.0',
    'SolidWorks 2018',
    '' );
FILE_SCHEMA (( 'CONFIG_CONTROL_DESIGN' ));
ENDSEC;

DATA;
#1 = CARTESIAN_POINT ( 'NONE',  ( 0.000000000000000000, 0.000000000000000000, 0.000000000000000000 ) ) ;
#2 = COORDINATED_UNIVERSAL_TIME_OFFSET ( 5, 0, .BEHIND. ) ;
#3 = APPROVAL_DATE_TIME ( #81, #134 ) ;
#4 = ORIENTED_EDGE ( 'NONE', *, *, #133, .F. ) ;
#5 = APPROVAL_DATE_TIME ( #27, #78 ) ;
#6 = EDGE_CURVE ( 'NONE', #63, #22, #169, .T. ) ;
#7 = CIRCLE ( 'NONE', #115, 12.50000000000000000 ) ;
#8 = DIRECTION ( 'NONE',  ( 0.000000000000000000, 0.000000000000000000, 1.000000000000000000 ) ) ;
#9 = EDGE_CURVE ( 'NONE', #22, #158, #18, .T. ) ;
#10 = ADVANCED_FACE ( 'NONE', ( #149 ), #99, .T. ) ;
#11 = DIRECTION ( 'NONE',  ( 0.000000000000000000, -0.000000000000000000, 1.000000000000000000 ) ) ;
#12 = EDGE_CURVE ( 'NONE', #63, #126, #111, .T. ) ;
#13 = PERSON_AND_ORGANIZATION_ROLE ( 'classification_officer' ) ;
#14 = PERSON_AND_ORGANIZATION ( #67, #28 ) ;
#15 = AXIS2_PLACEMENT_3D ( 'NONE', #57, #123, #35 ) ;
#16 = AXIS2_PLACEMENT_3D ( 'NONE', #60, #154, #98 ) ;
#17 = LOCAL_TIME ( 15, 36, 56.00000000000000000, #125 ) ;
#18 = LINE ( 'NONE', #69, #93 ) ;
#19 = LOCAL_TIME ( 15, 36, 56.00000000000000000, #171 ) ;
#20 = ORIENTED_EDGE ( 'NONE', *, *, #133, .T. ) ;
#21 = CARTESIAN_POINT ( 'NONE',  ( 1.530808498934191521E-15, 1.000000000000000000, 12.50000000000000000 ) ) ;
#22 = VERTEX_POINT ( 'NONE', #73 ) ;
#23 = DATE_TIME_ROLE ( 'classification_date' ) ;
#24 = CARTESIAN_POINT ( 'NONE',  ( 0.000000000000000000, 1.000000000000000000, 0.000000000000000000 ) ) ;
#25 = DIRECTION ( 'NONE',  ( 0.000000000000000000, 0.000000000000000000, 1.000000000000000000 ) ) ;
#26 = PERSON_AND_ORGANIZATION_ROLE ( 'design_owner' ) ;
#27 = DATE_AND_TIME ( #107, #84 ) ;
#28 = ORGANIZATION ( 'UNSPECIFIED', 'UNSPECIFIED', '' ) ;
#29 = ORIENTED_EDGE ( 'NONE', *, *, #6, .T. ) ;
#30 = DESIGN_CONTEXT ( 'detailed design', #175, 'design' ) ;
#31 = ADVANCED_BREP_SHAPE_REPRESENTATION ( 'Web Model 68523_17197', ( #62, #82 ), #34 ) ;
#32 = DIRECTION ( 'NONE',  ( -0.000000000000000000, -1.000000000000000000, -0.000000000000000000 ) ) ;
#33 = PERSON_AND_ORGANIZATION ( #67, #28 ) ;
#34 =( GEOMETRIC_REPRESENTATION_CONTEXT ( 3 ) GLOBAL_UNCERTAINTY_ASSIGNED_CONTEXT ( ( #150 ) ) GLOBAL_UNIT_ASSIGNED_CONTEXT ( ( #46, #132, #48 ) ) REPRESENTATION_CONTEXT ( 'NONE', 'WORKASPACE' ) );
#35 = DIRECTION ( 'NONE',  ( 0.000000000000000000, 0.000000000000000000, -1.000000000000000000 ) ) ;
#36 = CIRCLE ( 'NONE', #16, 12.50000000000000000 ) ;
#37 = PERSON_AND_ORGANIZATION_ROLE ( 'creator' ) ;
#38 = PERSON_AND_ORGANIZATION ( #67, #28 ) ;
#39 = DATE_TIME_ROLE ( 'creation_date' ) ;
#40 = ORIENTED_EDGE ( 'NONE', *, *, #55, .T. ) ;
#41 = PRODUCT_DEFINITION ( 'UNKNOWN', '', #61, #30 ) ;
#42 = ORIENTED_EDGE ( 'NONE', *, *, #9, .F. ) ;
#43 = CARTESIAN_POINT ( 'NONE',  ( 0.000000000000000000, 1.000000000000000000, 0.000000000000000000 ) ) ;
#44 = DATE_AND_TIME ( #56, #114 ) ;
#45 = ORIENTED_EDGE ( 'NONE', *, *, #155, .T. ) ;
#46 =( LENGTH_UNIT ( ) NAMED_UNIT ( * ) SI_UNIT ( .MILLI., .METRE. ) );
#47 = CC_DESIGN_PERSON_AND_ORGANIZATION_ASSIGNMENT ( #33, #88, ( #61 ) ) ;
#48 =( NAMED_UNIT ( * ) SI_UNIT ( $, .STERADIAN. ) SOLID_ANGLE_UNIT ( ) );
#49 = MECHANICAL_CONTEXT ( 'NONE', #89, 'mechanical' ) ;
#50 = PERSON_AND_ORGANIZATION ( #67, #28 ) ;
#51 = DIRECTION ( 'NONE',  ( 0.000000000000000000, 0.000000000000000000, 1.000000000000000000 ) ) ;
#52 = PERSON_AND_ORGANIZATION ( #67, #28 ) ;
#53 = CC_DESIGN_DATE_AND_TIME_ASSIGNMENT ( #157, #39, ( #41 ) ) ;
#54 = EDGE_LOOP ( 'NONE', ( #101, #165, #40, #42 ) ) ;
#55 = EDGE_CURVE ( 'NONE', #126, #158, #7, .T. ) ;
#56 = CALENDAR_DATE ( 2021, 14, 4 ) ;
#57 = CARTESIAN_POINT ( 'NONE',  ( 0.000000000000000000, 1.000000000000000000, 0.000000000000000000 ) ) ;
#58 = CARTESIAN_POINT ( 'NONE',  ( 0.000000000000000000, 0.000000000000000000, -12.50000000000000000 ) ) ;
#59 = EDGE_LOOP ( 'NONE', ( #4, #72 ) ) ;
#60 = CARTESIAN_POINT ( 'NONE',  ( 0.000000000000000000, 0.000000000000000000, 0.000000000000000000 ) ) ;
#61 = PRODUCT_DEFINITION_FORMATION_WITH_SPECIFIED_SOURCE ( 'ANY', '', #166, .NOT_KNOWN. ) ;
#62 = MANIFOLD_SOLID_BREP ( 'Extrude1', #135 ) ;
#63 = VERTEX_POINT ( 'NONE', #21 ) ;
#64 = CC_DESIGN_PERSON_AND_ORGANIZATION_ASSIGNMENT ( #38, #13, ( #86 ) ) ;
#65 = APPROVAL_DATE_TIME ( #76, #110 ) ;
#66 = CC_DESIGN_PERSON_AND_ORGANIZATION_ASSIGNMENT ( #50, #37, ( #61 ) ) ;
#67 = PERSON ( 'UNSPECIFIED', 'UNSPECIFIED', 'UNSPECIFIED', ('UNSPECIFIED'), ('UNSPECIFIED'), ('UNSPECIFIED') ) ;
#68 = FACE_OUTER_BOUND ( 'NONE', #83, .T. ) ;
#69 = CARTESIAN_POINT ( 'NONE',  ( 0.000000000000000000, 1.000000000000000000, -12.50000000000000000 ) ) ;
#70 = COORDINATED_UNIVERSAL_TIME_OFFSET ( 5, 0, .BEHIND. ) ;
#71 = CARTESIAN_POINT ( 'NONE',  ( 0.000000000000000000, 1.000000000000000000, 0.000000000000000000 ) ) ;
#72 = ORIENTED_EDGE ( 'NONE', *, *, #55, .F. ) ;
#73 = CARTESIAN_POINT ( 'NONE',  ( 0.000000000000000000, 1.000000000000000000, -12.50000000000000000 ) ) ;
#74 = APPROVAL_ROLE ( '' ) ;
#75 = SECURITY_CLASSIFICATION_LEVEL ( 'unclassified' ) ;
#76 = DATE_AND_TIME ( #120, #19 ) ;
#77 = APPROVAL_STATUS ( 'not_yet_approved' ) ;
#78 = APPROVAL ( #77, 'UNSPECIFIED' ) ;
#79 = APPROVAL_PERSON_ORGANIZATION ( #14, #134, #113 ) ;
#80 = ORIENTED_EDGE ( 'NONE', *, *, #12, .F. ) ;
#81 = DATE_AND_TIME ( #148, #167 ) ;
#82 = AXIS2_PLACEMENT_3D ( 'NONE', #1, #51, #174 ) ;
#83 = EDGE_LOOP ( 'NONE', ( #80, #121, #143, #20 ) ) ;
#84 = LOCAL_TIME ( 15, 36, 56.00000000000000000, #70 ) ;
#85 = DIRECTION ( 'NONE',  ( 0.000000000000000000, 1.000000000000000000, 0.000000000000000000 ) ) ;
#86 = SECURITY_CLASSIFICATION ( '', '', #75 ) ;
#87 = PLANE ( 'NONE',  #124 ) ;
#88 = PERSON_AND_ORGANIZATION_ROLE ( 'design_supplier' ) ;
#89 = APPLICATION_CONTEXT ( 'configuration controlled 3d designs of mechanical parts and assemblies' ) ;
#90 = AXIS2_PLACEMENT_3D ( 'NONE', #71, #32, #172 ) ;
#91 = COORDINATED_UNIVERSAL_TIME_OFFSET ( 5, 0, .BEHIND. ) ;
#92 = FACE_OUTER_BOUND ( 'NONE', #131, .T. ) ;
#93 = VECTOR ( 'NONE', #104, 1000.000000000000000 ) ;
#94 = VECTOR ( 'NONE', #112, 1000.000000000000000 ) ;
#95 = DIRECTION ( 'NONE',  ( 0.000000000000000000, 0.000000000000000000, 1.000000000000000000 ) ) ;
#96 = PERSON_AND_ORGANIZATION ( #67, #28 ) ;
#97 = SHAPE_DEFINITION_REPRESENTATION ( #106, #31 ) ;
#98 = DIRECTION ( 'NONE',  ( 0.000000000000000000, 0.000000000000000000, 1.000000000000000000 ) ) ;
#99 = CYLINDRICAL_SURFACE ( 'NONE', #15, 12.50000000000000000 ) ;
#100 = APPLICATION_PROTOCOL_DEFINITION ( 'international standard', 'config_control_design', 1994, #175 ) ;
#101 = ORIENTED_EDGE ( 'NONE', *, *, #6, .F. ) ;
#102 = AXIS2_PLACEMENT_3D ( 'NONE', #140, #127, #159 ) ;
#103 = CIRCLE ( 'NONE', #161, 12.50000000000000000 ) ;
#104 = DIRECTION ( 'NONE',  ( -0.000000000000000000, -1.000000000000000000, -0.000000000000000000 ) ) ;
#105 = FACE_OUTER_BOUND ( 'NONE', #59, .T. ) ;
#106 = PRODUCT_DEFINITION_SHAPE ( 'NONE', 'NONE',  #41 ) ;
#107 = CALENDAR_DATE ( 2021, 14, 4 ) ;
#108 = CARTESIAN_POINT ( 'NONE',  ( 0.000000000000000000, 0.000000000000000000, 0.000000000000000000 ) ) ;
#109 = CARTESIAN_POINT ( 'NONE',  ( 1.530808498934191521E-15, 1.000000000000000000, 12.50000000000000000 ) ) ;
#110 = APPROVAL ( #145, 'UNSPECIFIED' ) ;
#111 = LINE ( 'NONE', #109, #94 ) ;
#112 = DIRECTION ( 'NONE',  ( -0.000000000000000000, -1.000000000000000000, -0.000000000000000000 ) ) ;
#113 = APPROVAL_ROLE ( '' ) ;
#114 = LOCAL_TIME ( 15, 36, 56.00000000000000000, #91 ) ;
#115 = AXIS2_PLACEMENT_3D ( 'NONE', #108, #85, #95 ) ;
#116 = PERSON_AND_ORGANIZATION_ROLE ( 'creator' ) ;
#117 = APPROVAL_PERSON_ORGANIZATION ( #119, #78, #147 ) ;
#118 = CC_DESIGN_PERSON_AND_ORGANIZATION_ASSIGNMENT ( #168, #26, ( #166 ) ) ;
#119 = PERSON_AND_ORGANIZATION ( #67, #28 ) ;
#120 = CALENDAR_DATE ( 2021, 14, 4 ) ;
#121 = ORIENTED_EDGE ( 'NONE', *, *, #155, .F. ) ;
#122 = CC_DESIGN_DATE_AND_TIME_ASSIGNMENT ( #44, #23, ( #86 ) ) ;
#123 = DIRECTION ( 'NONE',  ( -0.000000000000000000, -1.000000000000000000, -0.000000000000000000 ) ) ;
#124 = AXIS2_PLACEMENT_3D ( 'NONE', #156, #144, #11 ) ;
#125 = COORDINATED_UNIVERSAL_TIME_OFFSET ( 5, 0, .BEHIND. ) ;
#126 = VERTEX_POINT ( 'NONE', #141 ) ;
#127 = DIRECTION ( 'NONE',  ( 0.000000000000000000, 1.000000000000000000, 0.000000000000000000 ) ) ;
#128 = ADVANCED_FACE ( 'NONE', ( #68 ), #136, .T. ) ;
#129 = ADVANCED_FACE ( 'NONE', ( #92 ), #139, .T. ) ;
#130 = CC_DESIGN_APPROVAL ( #134, ( #86 ) ) ;
#131 = EDGE_LOOP ( 'NONE', ( #45, #29 ) ) ;
#132 =( NAMED_UNIT ( * ) PLANE_ANGLE_UNIT ( ) SI_UNIT ( $, .RADIAN. ) );
#133 = EDGE_CURVE ( 'NONE', #158, #126, #36, .T. ) ;
#134 = APPROVAL ( #164, 'UNSPECIFIED' ) ;
#135 = CLOSED_SHELL ( 'NONE', ( #10, #128, #129, #142 ) ) ;
#136 = CYLINDRICAL_SURFACE ( 'NONE', #90, 12.50000000000000000 ) ;
#137 = CC_DESIGN_SECURITY_CLASSIFICATION ( #86, ( #61 ) ) ;
#138 = DIRECTION ( 'NONE',  ( 0.000000000000000000, 1.000000000000000000, 0.000000000000000000 ) ) ;
#139 = PLANE ( 'NONE',  #102 ) ;
#140 = CARTESIAN_POINT ( 'NONE',  ( 0.000000000000000000, 1.000000000000000000, 0.000000000000000000 ) ) ;
#141 = CARTESIAN_POINT ( 'NONE',  ( 1.530808498934191521E-15, 0.000000000000000000, 12.50000000000000000 ) ) ;
#142 = ADVANCED_FACE ( 'NONE', ( #105 ), #87, .F. ) ;
#143 = ORIENTED_EDGE ( 'NONE', *, *, #9, .T. ) ;
#144 = DIRECTION ( 'NONE',  ( 0.000000000000000000, 1.000000000000000000, 0.000000000000000000 ) ) ;
#145 = APPROVAL_STATUS ( 'not_yet_approved' ) ;
#146 = CC_DESIGN_PERSON_AND_ORGANIZATION_ASSIGNMENT ( #96, #116, ( #41 ) ) ;
#147 = APPROVAL_ROLE ( '' ) ;
#148 = CALENDAR_DATE ( 2021, 14, 4 ) ;
#149 = FACE_OUTER_BOUND ( 'NONE', #54, .T. ) ;
#150 = UNCERTAINTY_MEASURE_WITH_UNIT (LENGTH_MEASURE( 1.000000000000000082E-05 ), #46, 'distance_accuracy_value', 'NONE');
#151 = PRODUCT_RELATED_PRODUCT_CATEGORY ( 'detail', '', ( #166 ) ) ;
#152 = APPROVAL_PERSON_ORGANIZATION ( #52, #110, #74 ) ;
#153 = AXIS2_PLACEMENT_3D ( 'NONE', #43, #138, #8 ) ;
#154 = DIRECTION ( 'NONE',  ( 0.000000000000000000, 1.000000000000000000, 0.000000000000000000 ) ) ;
#155 = EDGE_CURVE ( 'NONE', #22, #63, #103, .T. ) ;
#156 = CARTESIAN_POINT ( 'NONE',  ( 0.000000000000000000, 0.000000000000000000, 0.000000000000000000 ) ) ;
#157 = DATE_AND_TIME ( #160, #17 ) ;
#158 = VERTEX_POINT ( 'NONE', #58 ) ;
#159 = DIRECTION ( 'NONE',  ( 0.000000000000000000, -0.000000000000000000, 1.000000000000000000 ) ) ;
#160 = CALENDAR_DATE ( 2021, 14, 4 ) ;
#161 = AXIS2_PLACEMENT_3D ( 'NONE', #24, #162, #25 ) ;
#162 = DIRECTION ( 'NONE',  ( 0.000000000000000000, 1.000000000000000000, 0.000000000000000000 ) ) ;
#163 = APPLICATION_PROTOCOL_DEFINITION ( 'international standard', 'config_control_design', 1994, #89 ) ;
#164 = APPROVAL_STATUS ( 'not_yet_approved' ) ;
#165 = ORIENTED_EDGE ( 'NONE', *, *, #12, .T. ) ;
#166 = PRODUCT ( 'Web Model 68523_17197', 'Web Model 68523_17197', '', ( #49 ) ) ;
#167 = LOCAL_TIME ( 15, 36, 56.00000000000000000, #2 ) ;
#168 = PERSON_AND_ORGANIZATION ( #67, #28 ) ;
#169 = CIRCLE ( 'NONE', #153, 12.50000000000000000 ) ;
#170 = CC_DESIGN_APPROVAL ( #110, ( #41 ) ) ;
#171 = COORDINATED_UNIVERSAL_TIME_OFFSET ( 5, 0, .BEHIND. ) ;
#172 = DIRECTION ( 'NONE',  ( 0.000000000000000000, 0.000000000000000000, -1.000000000000000000 ) ) ;
#173 = CC_DESIGN_APPROVAL ( #78, ( #61 ) ) ;
#174 = DIRECTION ( 'NONE',  ( 1.000000000000000000, 0.000000000000000000, 0.000000000000000000 ) ) ;
#175 = APPLICATION_CONTEXT ( 'configuration controlled 3d designs of mechanical parts and assemblies' ) ;
ENDSEC;
END-ISO-10303-21;
