ISO-10303-21;
HEADER;
FILE_DESCRIPTION (( 'STEP AP203' ),
    '1' );
FILE_NAME ('5444-E0W.STEP',
    '2015-02-24T16:46:18',
    ( 'Admin' ),
    ( '' ),
    'SwSTEP 2.0',
    'SolidWorks 2014',
    '' );
FILE_SCHEMA (( 'CONFIG_CONTROL_DESIGN' ));
ENDSEC;

DATA;
#1 = AXIS2_PLACEMENT_3D ( 'NONE', #120, #212, #125 ) ;
#2 = DATE_AND_TIME ( #128, #77 ) ;
#3 = ORIENTED_EDGE ( 'NONE', *, *, #15, .T. ) ;
#4 = ORIENTED_EDGE ( 'NONE', *, *, #200, .T. ) ;
#5 = CYLINDRICAL_SURFACE ( 'NONE', #36, 12.69999999999999900 ) ;
#6 = DIRECTION ( 'NONE',  ( 1.000000000000000000, 0.0000000000000000000, 0.0000000000000000000 ) ) ;
#7 = AXIS2_PLACEMENT_3D ( 'NONE', #202, #105, #207 ) ;
#8 = APPROVAL_STATUS ( 'not_yet_approved' ) ;
#9 = SPHERICAL_SURFACE ( 'NONE', #1, 23.35000000000000100 ) ;
#10 = CARTESIAN_POINT ( 'NONE',  ( 0.0000000000000000000, 0.0000000000000000000, 0.0000000000000000000 ) ) ;
#11 = CARTESIAN_POINT ( 'NONE',  ( 0.0000000000000000000, 0.0000000000000000000, 5.505804430903522100 ) ) ;
#12 = CYLINDRICAL_SURFACE ( 'NONE', #211, 12.69999999999999900 ) ;
#13 = DIRECTION ( 'NONE',  ( -1.224646799147353500E-016, -1.000000000000000000, 0.0000000000000000000 ) ) ;
#14 = PERSON_AND_ORGANIZATION_ROLE ( 'creator' ) ;
#15 = EDGE_CURVE ( 'NONE', #144, #189, #124, .T. ) ;
#16 = PERSON_AND_ORGANIZATION ( #52, #110 ) ;
#17 = AXIS2_PLACEMENT_3D ( 'NONE', #172, #35, #76 ) ;
#18 = ADVANCED_FACE ( 'NONE', ( #111 ), #5, .T. ) ;
#19 = AXIS2_PLACEMENT_3D ( 'NONE', #115, #139, #13 ) ;
#20 = AXIS2_PLACEMENT_3D ( 'NONE', #32, #183, #210 ) ;
#21 = APPROVAL_ROLE ( '' ) ;
#22 = APPROVAL_STATUS ( 'not_yet_approved' ) ;
#23 = ORIENTED_EDGE ( 'NONE', *, *, #107, .F. ) ;
#24 = DIRECTION ( 'NONE',  ( 1.000000000000000000, 0.0000000000000000000, 0.0000000000000000000 ) ) ;
#25 = PERSON_AND_ORGANIZATION_ROLE ( 'classification_officer' ) ;
#26 = DIRECTION ( 'NONE',  ( -0.0000000000000000000, -0.0000000000000000000, 1.000000000000000000 ) ) ;
#27 = ORIENTED_EDGE ( 'NONE', *, *, #59, .F. ) ;
#28 = PERSON_AND_ORGANIZATION ( #52, #110 ) ;
#29 = FACE_OUTER_BOUND ( 'NONE', #104, .T. ) ;
#30 = ORIENTED_EDGE ( 'NONE', *, *, #15, .F. ) ;
#31 = DIRECTION ( 'NONE',  ( 1.000000000000000000, 0.0000000000000000000, 0.0000000000000000000 ) ) ;
#32 = CARTESIAN_POINT ( 'NONE',  ( 0.0000000000000000000, 0.0000000000000000000, -1.749999999999999800 ) ) ;
#33 = AXIS2_PLACEMENT_3D ( 'NONE', #11, #95, #188 ) ;
#34 = PERSON_AND_ORGANIZATION ( #52, #110 ) ;
#35 = DIRECTION ( 'NONE',  ( 1.000000000000000000, 0.0000000000000000000, 0.0000000000000000000 ) ) ;
#36 = AXIS2_PLACEMENT_3D ( 'NONE', #219, #103, #179 ) ;
#37 = ORIENTED_EDGE ( 'NONE', *, *, #216, .T. ) ;
#38 = ADVANCED_FACE ( 'NONE', ( #208 ), #151, .F. ) ;
#39 = APPROVAL ( #8, 'UNSPECIFIED' ) ;
#40 = LINE ( 'NONE', #138, #67 ) ;
#41 =( LENGTH_UNIT ( ) NAMED_UNIT ( * ) SI_UNIT ( .MILLI., .METRE. ) );
#42 = ORIENTED_EDGE ( 'NONE', *, *, #218, .T. ) ;
#43 = VERTEX_POINT ( 'NONE', #100 ) ;
#44 = APPROVAL_STATUS ( 'not_yet_approved' ) ;
#45 = ORIENTED_EDGE ( 'NONE', *, *, #195, .T. ) ;
#46 = MECHANICAL_CONTEXT ( 'NONE', #48, 'mechanical' ) ;
#47 = DIRECTION ( 'NONE',  ( -0.0000000000000000000, -0.0000000000000000000, 1.000000000000000000 ) ) ;
#48 = APPLICATION_CONTEXT ( 'configuration controlled 3d designs of mechanical parts and assemblies' ) ;
#49 = DIRECTION ( 'NONE',  ( 0.0000000000000000000, 1.000000000000000000, 0.0000000000000000000 ) ) ;
#50 = EDGE_CURVE ( 'NONE', #112, #157, #127, .T. ) ;
#51 = APPROVAL_ROLE ( '' ) ;
#52 = PERSON ( 'UNSPECIFIED', 'UNSPECIFIED', 'UNSPECIFIED', ('UNSPECIFIED'), ('UNSPECIFIED'), ('UNSPECIFIED') ) ;
#53 = AXIS2_PLACEMENT_3D ( 'NONE', #10, #148, #31 ) ;
#54 = PERSON_AND_ORGANIZATION ( #52, #110 ) ;
#55 = CARTESIAN_POINT ( 'NONE',  ( -12.69999999999999900, 1.555301434917138400E-015, 9.017153270429325600 ) ) ;
#56 = CIRCLE ( 'NONE', #17, 23.35000000000000100 ) ;
#57 = VECTOR ( 'NONE', #143, 1000.000000000000000 ) ;
#58 = DATE_TIME_ROLE ( 'classification_date' ) ;
#59 = EDGE_CURVE ( 'NONE', #189, #43, #101, .T. ) ;
#60 = EDGE_LOOP ( 'NONE', ( #135, #23 ) ) ;
#61 = EDGE_CURVE ( 'NONE', #165, #43, #74, .T. ) ;
#62 = AXIS2_PLACEMENT_3D ( 'NONE', #86, #47, #6 ) ;
#63 = CARTESIAN_POINT ( 'NONE',  ( 0.0000000000000000000, 1.429775138004535100E-015, 1.750000000000001600 ) ) ;
#64 = DIRECTION ( 'NONE',  ( 1.000000000000000000, 0.0000000000000000000, 0.0000000000000000000 ) ) ;
#65 = CARTESIAN_POINT ( 'NONE',  ( -12.69999999999999900, 1.555301434917138400E-015, -1.749999999999999800 ) ) ;
#66 = CC_DESIGN_DATE_AND_TIME_ASSIGNMENT ( #108, #152, ( #170 ) ) ;
#67 = VECTOR ( 'NONE', #70, 1000.000000000000000 ) ;
#68 = EDGE_LOOP ( 'NONE', ( #215, #221, #30, #82, #147 ) ) ;
#69 = DIRECTION ( 'NONE',  ( -0.0000000000000000000, -0.0000000000000000000, 1.000000000000000000 ) ) ;
#70 = DIRECTION ( 'NONE',  ( -0.0000000000000000000, -0.0000000000000000000, 1.000000000000000000 ) ) ;
#71 = PRODUCT ( '5444-E0W', '5444-E0W', '', ( #46 ) ) ;
#72 = APPROVAL_DATE_TIME ( #185, #39 ) ;
#73 = DIRECTION ( 'NONE',  ( 1.000000000000000000, 0.0000000000000000000, 0.0000000000000000000 ) ) ;
#74 = CIRCLE ( 'NONE', #19, 23.35000000000000100 ) ;
#75 = MANIFOLD_SOLID_BREP ( '5444-001-1-solid1', #196 ) ;
#76 = DIRECTION ( 'NONE',  ( 0.0000000000000000000, 0.0000000000000000000, -1.000000000000000000 ) ) ;
#77 = LOCAL_TIME ( 11, 46, 18.00000000000000000, #123 ) ;
#78 = ADVANCED_FACE ( 'NONE', ( #220 ), #12, .T. ) ;
#79 = ORIENTED_EDGE ( 'NONE', *, *, #61, .F. ) ;
#80 = ORIENTED_EDGE ( 'NONE', *, *, #61, .T. ) ;
#81 = CIRCLE ( 'NONE', #62, 12.69999999999999800 ) ;
#82 = ORIENTED_EDGE ( 'NONE', *, *, #218, .F. ) ;
#83 = CC_DESIGN_PERSON_AND_ORGANIZATION_ASSIGNMENT ( #16, #91, ( #71 ) ) ;
#84 = LOCAL_TIME ( 11, 46, 18.00000000000000000, #171 ) ;
#85 = CARTESIAN_POINT ( 'NONE',  ( 0.0000000000000000000, 0.0000000000000000000, 5.505804430903522100 ) ) ;
#86 = CARTESIAN_POINT ( 'NONE',  ( 0.0000000000000000000, 0.0000000000000000000, 5.505804430903522100 ) ) ;
#87 = APPROVAL ( #44, 'UNSPECIFIED' ) ;
#88 = DIRECTION ( 'NONE',  ( -1.000000000000000000, 0.0000000000000000000, 0.0000000000000000000 ) ) ;
#89 = DATE_AND_TIME ( #182, #142 ) ;
#90 = ADVANCED_FACE ( 'NONE', ( #99 ), #93, .F. ) ;
#91 = PERSON_AND_ORGANIZATION_ROLE ( 'design_owner' ) ;
#92 = AXIS2_PLACEMENT_3D ( 'NONE', #132, #186, #24 ) ;
#93 = SPHERICAL_SURFACE ( 'NONE', #217, 23.35000000000000100 ) ;
#94 = PERSON_AND_ORGANIZATION ( #52, #110 ) ;
#95 = DIRECTION ( 'NONE',  ( -0.0000000000000000000, -0.0000000000000000000, 1.000000000000000000 ) ) ;
#96 = APPLICATION_PROTOCOL_DEFINITION ( 'international standard', 'config_control_design', 1994, #160 ) ;
#97 = ORIENTED_EDGE ( 'NONE', *, *, #199, .F. ) ;
#98 = PERSON_AND_ORGANIZATION ( #52, #110 ) ;
#99 = FACE_OUTER_BOUND ( 'NONE', #167, .T. ) ;
#100 = CARTESIAN_POINT ( 'NONE',  ( -1.555301434917138400E-015, -12.69999999999999900, 5.505804430903523000 ) ) ;
#101 = CIRCLE ( 'NONE', #206, 12.69999999999999800 ) ;
#102 = ORIENTED_EDGE ( 'NONE', *, *, #59, .T. ) ;
#103 = DIRECTION ( 'NONE',  ( -0.0000000000000000000, -0.0000000000000000000, 1.000000000000000000 ) ) ;
#104 = EDGE_LOOP ( 'NONE', ( #136, #80, #45, #42 ) ) ;
#105 = DIRECTION ( 'NONE',  ( 0.0000000000000000000, -0.0000000000000000000, 1.000000000000000000 ) ) ;
#106 = CC_DESIGN_DATE_AND_TIME_ASSIGNMENT ( #89, #58, ( #174 ) ) ;
#107 = EDGE_CURVE ( 'NONE', #157, #112, #162, .T. ) ;
#108 = DATE_AND_TIME ( #149, #117 ) ;
#109 = APPROVAL_DATE_TIME ( #191, #184 ) ;
#110 = ORGANIZATION ( 'UNSPECIFIED', 'UNSPECIFIED', '' ) ;
#111 = FACE_OUTER_BOUND ( 'NONE', #178, .T. ) ;
#112 = VERTEX_POINT ( 'NONE', #176 ) ;
#113 = CARTESIAN_POINT ( 'NONE',  ( 12.69999999999999800, 0.0000000000000000000, 5.505804430903522100 ) ) ;
#114 = PERSON_AND_ORGANIZATION_ROLE ( 'design_supplier' ) ;
#115 = CARTESIAN_POINT ( 'NONE',  ( 0.0000000000000000000, 0.0000000000000000000, 25.10000000000000500 ) ) ;
#116 = APPLICATION_PROTOCOL_DEFINITION ( 'international standard', 'config_control_design', 1994, #48 ) ;
#117 = LOCAL_TIME ( 11, 46, 18.00000000000000000, #141 ) ;
#118 = UNCERTAINTY_MEASURE_WITH_UNIT (LENGTH_MEASURE( 1.000000000000000100E-005 ), #41, 'distance_accuracy_value', 'NONE');
#119 = APPROVAL_PERSON_ORGANIZATION ( #54, #87, #187 ) ;
#120 = CARTESIAN_POINT ( 'NONE',  ( 0.0000000000000000000, 0.0000000000000000000, 25.10000000000000500 ) ) ;
#121 =( NAMED_UNIT ( * ) SI_UNIT ( $, .STERADIAN. ) SOLID_ANGLE_UNIT ( ) );
#122 = LOCAL_TIME ( 11, 46, 18.00000000000000000, #198 ) ;
#123 = COORDINATED_UNIVERSAL_TIME_OFFSET ( 5, 0, .BEHIND. ) ;
#124 = CIRCLE ( 'NONE', #214, 12.69999999999999800 ) ;
#125 = DIRECTION ( 'NONE',  ( 0.0000000000000000000, 1.000000000000000000, 0.0000000000000000000 ) ) ;
#126 = CIRCLE ( 'NONE', #33, 12.69999999999999800 ) ;
#127 = CIRCLE ( 'NONE', #92, 12.69999999999999900 ) ;
#128 = CALENDAR_DATE ( 2015, 24, 2 ) ;
#129 = DIRECTION ( 'NONE',  ( -0.0000000000000000000, -0.0000000000000000000, 1.000000000000000000 ) ) ;
#130 = ORIENTED_EDGE ( 'NONE', *, *, #107, .T. ) ;
#131 = PERSON_AND_ORGANIZATION_ROLE ( 'creator' ) ;
#132 = CARTESIAN_POINT ( 'NONE',  ( 0.0000000000000000000, 0.0000000000000000000, -1.749999999999999800 ) ) ;
#133 = CC_DESIGN_PERSON_AND_ORGANIZATION_ASSIGNMENT ( #146, #131, ( #156 ) ) ;
#134 = CC_DESIGN_APPROVAL ( #87, ( #170 ) ) ;
#135 = ORIENTED_EDGE ( 'NONE', *, *, #50, .F. ) ;
#136 = ORIENTED_EDGE ( 'NONE', *, *, #200, .F. ) ;
#137 = SECURITY_CLASSIFICATION_LEVEL ( 'unclassified' ) ;
#138 = CARTESIAN_POINT ( 'NONE',  ( 12.69999999999999900, 0.0000000000000000000, 9.017153270429325600 ) ) ;
#139 = DIRECTION ( 'NONE',  ( -1.000000000000000000, 1.224646799147353200E-016, 0.0000000000000000000 ) ) ;
#140 = APPROVAL_DATE_TIME ( #2, #87 ) ;
#141 = COORDINATED_UNIVERSAL_TIME_OFFSET ( 5, 0, .BEHIND. ) ;
#142 = LOCAL_TIME ( 11, 46, 18.00000000000000000, #177 ) ;
#143 = DIRECTION ( 'NONE',  ( -0.0000000000000000000, -0.0000000000000000000, 1.000000000000000000 ) ) ;
#144 = VERTEX_POINT ( 'NONE', #153 ) ;
#145 =( NAMED_UNIT ( * ) PLANE_ANGLE_UNIT ( ) SI_UNIT ( $, .RADIAN. ) );
#146 = PERSON_AND_ORGANIZATION ( #52, #110 ) ;
#147 = ORIENTED_EDGE ( 'NONE', *, *, #216, .F. ) ;
#148 = DIRECTION ( 'NONE',  ( 0.0000000000000000000, 0.0000000000000000000, 1.000000000000000000 ) ) ;
#149 = CALENDAR_DATE ( 2015, 24, 2 ) ;
#150 = ORIENTED_EDGE ( 'NONE', *, *, #195, .F. ) ;
#151 = PLANE ( 'NONE',  #7 ) ;
#152 = DATE_TIME_ROLE ( 'creation_date' ) ;
#153 = CARTESIAN_POINT ( 'NONE',  ( 0.0000000000000000000, 12.69999999999999900, 5.505804430903523000 ) ) ;
#154 = PERSON_AND_ORGANIZATION ( #52, #110 ) ;
#155 = PRODUCT_RELATED_PRODUCT_CATEGORY ( 'detail', '', ( #71 ) ) ;
#156 = PRODUCT_DEFINITION_FORMATION_WITH_SPECIFIED_SOURCE ( 'ANY', '', #71, .NOT_KNOWN. ) ;
#157 = VERTEX_POINT ( 'NONE', #65 ) ;
#158 = DESIGN_CONTEXT ( 'detailed design', #160, 'design' ) ;
#159 = CALENDAR_DATE ( 2015, 24, 2 ) ;
#160 = APPLICATION_CONTEXT ( 'configuration controlled 3d designs of mechanical parts and assemblies' ) ;
#161 = PRODUCT_DEFINITION_SHAPE ( 'NONE', 'NONE',  #170 ) ;
#162 = CIRCLE ( 'NONE', #20, 12.69999999999999900 ) ;
#163 = CC_DESIGN_PERSON_AND_ORGANIZATION_ASSIGNMENT ( #154, #25, ( #174 ) ) ;
#164 = APPROVAL_PERSON_ORGANIZATION ( #34, #39, #21 ) ;
#165 = VERTEX_POINT ( 'NONE', #63 ) ;
#166 = LINE ( 'NONE', #55, #57 ) ;
#167 = EDGE_LOOP ( 'NONE', ( #79, #4, #3, #102 ) ) ;
#168 = CC_DESIGN_APPROVAL ( #39, ( #156 ) ) ;
#169 = CC_DESIGN_PERSON_AND_ORGANIZATION_ASSIGNMENT ( #28, #14, ( #170 ) ) ;
#170 = PRODUCT_DEFINITION ( 'UNKNOWN', '', #156, #158 ) ;
#171 = COORDINATED_UNIVERSAL_TIME_OFFSET ( 5, 0, .BEHIND. ) ;
#172 = CARTESIAN_POINT ( 'NONE',  ( 0.0000000000000000000, 0.0000000000000000000, 25.10000000000000500 ) ) ;
#173 = CARTESIAN_POINT ( 'NONE',  ( -12.69999999999999800, 1.555301434917138200E-015, 5.505804430903522100 ) ) ;
#174 = SECURITY_CLASSIFICATION ( '', '', #137 ) ;
#175 = CARTESIAN_POINT ( 'NONE',  ( 0.0000000000000000000, 0.0000000000000000000, 5.505804430903522100 ) ) ;
#176 = CARTESIAN_POINT ( 'NONE',  ( 12.69999999999999900, 0.0000000000000000000, -1.749999999999999800 ) ) ;
#177 = COORDINATED_UNIVERSAL_TIME_OFFSET ( 5, 0, .BEHIND. ) ;
#178 = EDGE_LOOP ( 'NONE', ( #97, #130, #37, #150, #27 ) ) ;
#179 = DIRECTION ( 'NONE',  ( 1.000000000000000000, 0.0000000000000000000, 0.0000000000000000000 ) ) ;
#180 = ADVANCED_FACE ( 'NONE', ( #29 ), #9, .F. ) ;
#181 = CARTESIAN_POINT ( 'NONE',  ( 0.0000000000000000000, 0.0000000000000000000, 25.10000000000000500 ) ) ;
#182 = CALENDAR_DATE ( 2015, 24, 2 ) ;
#183 = DIRECTION ( 'NONE',  ( -0.0000000000000000000, -0.0000000000000000000, 1.000000000000000000 ) ) ;
#184 = APPROVAL ( #22, 'UNSPECIFIED' ) ;
#185 = DATE_AND_TIME ( #159, #84 ) ;
#186 = DIRECTION ( 'NONE',  ( -0.0000000000000000000, -0.0000000000000000000, 1.000000000000000000 ) ) ;
#187 = APPROVAL_ROLE ( '' ) ;
#188 = DIRECTION ( 'NONE',  ( 1.000000000000000000, 0.0000000000000000000, 0.0000000000000000000 ) ) ;
#189 = VERTEX_POINT ( 'NONE', #173 ) ;
#190 = APPROVAL_PERSON_ORGANIZATION ( #98, #184, #51 ) ;
#191 = DATE_AND_TIME ( #204, #122 ) ;
#192 =( GEOMETRIC_REPRESENTATION_CONTEXT ( 3 ) GLOBAL_UNCERTAINTY_ASSIGNED_CONTEXT ( ( #118 ) ) GLOBAL_UNIT_ASSIGNED_CONTEXT ( ( #41, #145, #121 ) ) REPRESENTATION_CONTEXT ( 'NONE', 'WORKASPACE' ) );
#193 = CARTESIAN_POINT ( 'NONE',  ( 0.0000000000000000000, 0.0000000000000000000, 9.017153270429325600 ) ) ;
#194 = ADVANCED_BREP_SHAPE_REPRESENTATION ( '5444-E0W', ( #75, #53 ), #192 ) ;
#195 = EDGE_CURVE ( 'NONE', #43, #203, #126, .T. ) ;
#196 = CLOSED_SHELL ( 'NONE', ( #78, #180, #90, #38, #18 ) ) ;
#197 = DIRECTION ( 'NONE',  ( 1.000000000000000000, 0.0000000000000000000, 0.0000000000000000000 ) ) ;
#198 = COORDINATED_UNIVERSAL_TIME_OFFSET ( 5, 0, .BEHIND. ) ;
#199 = EDGE_CURVE ( 'NONE', #157, #189, #166, .T. ) ;
#200 = EDGE_CURVE ( 'NONE', #165, #144, #56, .T. ) ;
#201 = SHAPE_DEFINITION_REPRESENTATION ( #161, #194 ) ;
#202 = CARTESIAN_POINT ( 'NONE',  ( 0.0000000000000000000, 6.429395695523603200E-016, -1.750000000000000000 ) ) ;
#203 = VERTEX_POINT ( 'NONE', #113 ) ;
#204 = CALENDAR_DATE ( 2015, 24, 2 ) ;
#205 = CC_DESIGN_PERSON_AND_ORGANIZATION_ASSIGNMENT ( #94, #114, ( #156 ) ) ;
#206 = AXIS2_PLACEMENT_3D ( 'NONE', #85, #69, #197 ) ;
#207 = DIRECTION ( 'NONE',  ( 1.000000000000000000, 0.0000000000000000000, 0.0000000000000000000 ) ) ;
#208 = FACE_OUTER_BOUND ( 'NONE', #60, .T. ) ;
#209 = CC_DESIGN_APPROVAL ( #184, ( #174 ) ) ;
#210 = DIRECTION ( 'NONE',  ( 1.000000000000000000, 0.0000000000000000000, 0.0000000000000000000 ) ) ;
#211 = AXIS2_PLACEMENT_3D ( 'NONE', #193, #129, #73 ) ;
#212 = DIRECTION ( 'NONE',  ( -1.000000000000000000, 0.0000000000000000000, 0.0000000000000000000 ) ) ;
#213 = CC_DESIGN_SECURITY_CLASSIFICATION ( #174, ( #156 ) ) ;
#214 = AXIS2_PLACEMENT_3D ( 'NONE', #175, #26, #64 ) ;
#215 = ORIENTED_EDGE ( 'NONE', *, *, #50, .T. ) ;
#216 = EDGE_CURVE ( 'NONE', #112, #203, #40, .T. ) ;
#217 = AXIS2_PLACEMENT_3D ( 'NONE', #181, #88, #49 ) ;
#218 = EDGE_CURVE ( 'NONE', #203, #144, #81, .T. ) ;
#219 = CARTESIAN_POINT ( 'NONE',  ( 0.0000000000000000000, 0.0000000000000000000, 9.017153270429325600 ) ) ;
#220 = FACE_OUTER_BOUND ( 'NONE', #68, .T. ) ;
#221 = ORIENTED_EDGE ( 'NONE', *, *, #199, .T. ) ;
ENDSEC;
END-ISO-10303-21;
