ISO-10303-21;
HEADER;
FILE_DESCRIPTION (( 'STEP AP203' ),
    '1' );
FILE_NAME ('Web Model 37689_38778.step',
    '2018-08-03T18:46:48',
    ( '' ),
    ( '' ),
    'SwSTEP 2.0',
    'SolidWorks 2016',
    '' );
FILE_SCHEMA (( 'CONFIG_CONTROL_DESIGN' ));
ENDSEC;

DATA;
#1 = ORIENTED_EDGE ( 'NONE', *, *, #170, .T. ) ;
#2 = CALENDAR_DATE ( 2018, 3, 8 ) ;
#3 = FACE_OUTER_BOUND ( 'NONE', #76, .T. ) ;
#4 = AXIS2_PLACEMENT_3D ( 'NONE', #114, #140, #141 ) ;
#5 = ADVANCED_FACE ( 'NONE', ( #3 ), #42, .T. ) ;
#6 = CARTESIAN_POINT ( 'NONE',  ( 0.0000000000000000000, 0.0000000000000000000, -3.174999999999999800 ) ) ;
#7 = EDGE_CURVE ( 'NONE', #171, #51, #139, .T. ) ;
#8 = FACE_OUTER_BOUND ( 'NONE', #115, .T. ) ;
#9 = APPROVAL_ROLE ( '' ) ;
#10 = CARTESIAN_POINT ( 'NONE',  ( 12.69999999999999900, 1.555301434917138400E-015, 3.174999999999999800 ) ) ;
#11 = APPROVAL_DATE_TIME ( #104, #68 ) ;
#12 = ORIENTED_EDGE ( 'NONE', *, *, #75, .F. ) ;
#13 = PERSON_AND_ORGANIZATION_ROLE ( 'design_supplier' ) ;
#14 = APPROVAL_PERSON_ORGANIZATION ( #82, #94, #60 ) ;
#15 = AXIS2_PLACEMENT_3D ( 'NONE', #48, #32, #62 ) ;
#16 = ORIENTED_EDGE ( 'NONE', *, *, #39, .T. ) ;
#17 = CC_DESIGN_APPROVAL ( #94, ( #167 ) ) ;
#18 = PERSON_AND_ORGANIZATION ( #67, #175 ) ;
#19 = CYLINDRICAL_SURFACE ( 'NONE', #132, 12.69999999999999900 ) ;
#20 = AXIS2_PLACEMENT_3D ( 'NONE', #21, #165, #57 ) ;
#21 = CARTESIAN_POINT ( 'NONE',  ( 0.0000000000000000000, 0.0000000000000000000, 3.174999999999999800 ) ) ;
#22 = CARTESIAN_POINT ( 'NONE',  ( -12.69999999999999900, 0.0000000000000000000, 3.174999999999999800 ) ) ;
#23 = DIRECTION ( 'NONE',  ( 1.000000000000000000, 0.0000000000000000000, -0.0000000000000000000 ) ) ;
#24 = FACE_OUTER_BOUND ( 'NONE', #125, .T. ) ;
#25 = LOCAL_TIME ( 14, 46, 48.00000000000000000, #153 ) ;
#26 = AXIS2_PLACEMENT_3D ( 'NONE', #88, #151, #29 ) ;
#27 = COORDINATED_UNIVERSAL_TIME_OFFSET ( 5, 0, .BEHIND. ) ;
#28 = EDGE_CURVE ( 'NONE', #78, #155, #111, .T. ) ;
#29 = DIRECTION ( 'NONE',  ( 1.000000000000000000, 0.0000000000000000000, 0.0000000000000000000 ) ) ;
#30 = CARTESIAN_POINT ( 'NONE',  ( 0.0000000000000000000, 0.0000000000000000000, 3.174999999999999800 ) ) ;
#31 = COORDINATED_UNIVERSAL_TIME_OFFSET ( 5, 0, .BEHIND. ) ;
#32 = DIRECTION ( 'NONE',  ( 0.0000000000000000000, 0.0000000000000000000, 1.000000000000000000 ) ) ;
#33 = EDGE_CURVE ( 'NONE', #155, #78, #38, .T. ) ;
#34 = PERSON_AND_ORGANIZATION ( #67, #175 ) ;
#35 = CARTESIAN_POINT ( 'NONE',  ( 0.0000000000000000000, 0.0000000000000000000, 0.0000000000000000000 ) ) ;
#36 = APPROVAL_ROLE ( '' ) ;
#37 = ORIENTED_EDGE ( 'NONE', *, *, #39, .F. ) ;
#38 = CIRCLE ( 'NONE', #4, 12.69999999999999900 ) ;
#39 = EDGE_CURVE ( 'NONE', #171, #155, #56, .T. ) ;
#40 = ORIENTED_EDGE ( 'NONE', *, *, #28, .T. ) ;
#41 = DIRECTION ( 'NONE',  ( 0.0000000000000000000, 0.0000000000000000000, 1.000000000000000000 ) ) ;
#42 = CYLINDRICAL_SURFACE ( 'NONE', #20, 12.69999999999999900 ) ;
#43 = APPLICATION_CONTEXT ( 'configuration controlled 3d designs of mechanical parts and assemblies' ) ;
#44 = DIRECTION ( 'NONE',  ( -1.000000000000000000, 0.0000000000000000000, 0.0000000000000000000 ) ) ;
#45 = APPROVAL_STATUS ( 'not_yet_approved' ) ;
#46 = PERSON_AND_ORGANIZATION_ROLE ( 'creator' ) ;
#47 = CALENDAR_DATE ( 2018, 3, 8 ) ;
#48 = CARTESIAN_POINT ( 'NONE',  ( 0.0000000000000000000, 0.0000000000000000000, 3.174999999999999800 ) ) ;
#49 = VECTOR ( 'NONE', #103, 1000.000000000000000 ) ;
#50 = PERSON_AND_ORGANIZATION ( #67, #175 ) ;
#51 = VERTEX_POINT ( 'NONE', #58 ) ;
#52 = COORDINATED_UNIVERSAL_TIME_OFFSET ( 5, 0, .BEHIND. ) ;
#53 = ORIENTED_EDGE ( 'NONE', *, *, #170, .F. ) ;
#54 = CC_DESIGN_PERSON_AND_ORGANIZATION_ASSIGNMENT ( #105, #46, ( #167 ) ) ;
#55 = AXIS2_PLACEMENT_3D ( 'NONE', #6, #41, #96 ) ;
#56 = LINE ( 'NONE', #150, #93 ) ;
#57 = DIRECTION ( 'NONE',  ( -1.000000000000000000, 0.0000000000000000000, 0.0000000000000000000 ) ) ;
#58 = CARTESIAN_POINT ( 'NONE',  ( -12.69999999999999900, 0.0000000000000000000, 3.174999999999999800 ) ) ;
#59 = APPROVAL_PERSON_ORGANIZATION ( #163, #68, #9 ) ;
#60 = APPROVAL_ROLE ( '' ) ;
#61 = APPROVAL_STATUS ( 'not_yet_approved' ) ;
#62 = DIRECTION ( 'NONE',  ( 1.000000000000000000, 0.0000000000000000000, 0.0000000000000000000 ) ) ;
#63 = DIRECTION ( 'NONE',  ( 0.0000000000000000000, 0.0000000000000000000, 1.000000000000000000 ) ) ;
#64 = AXIS2_PLACEMENT_3D ( 'NONE', #119, #63, #133 ) ;
#65 = PRODUCT_DEFINITION_SHAPE ( 'NONE', 'NONE',  #167 ) ;
#66 = APPROVAL_DATE_TIME ( #128, #162 ) ;
#67 = PERSON ( 'UNSPECIFIED', 'UNSPECIFIED', 'UNSPECIFIED', ('UNSPECIFIED'), ('UNSPECIFIED'), ('UNSPECIFIED') ) ;
#68 = APPROVAL ( #61, 'UNSPECIFIED' ) ;
#69 = APPROVAL_DATE_TIME ( #137, #94 ) ;
#70 = EDGE_LOOP ( 'NONE', ( #37, #12, #1, #40 ) ) ;
#71 = CARTESIAN_POINT ( 'NONE',  ( 12.69999999999999900, 1.555301434917138400E-015, -3.174999999999999800 ) ) ;
#72 = DESIGN_CONTEXT ( 'detailed design', #43, 'design' ) ;
#73 = DIRECTION ( 'NONE',  ( 1.000000000000000000, 0.0000000000000000000, 0.0000000000000000000 ) ) ;
#74 = CALENDAR_DATE ( 2018, 3, 8 ) ;
#75 = EDGE_CURVE ( 'NONE', #51, #171, #99, .T. ) ;
#76 = EDGE_LOOP ( 'NONE', ( #164, #16, #87, #53 ) ) ;
#77 = CALENDAR_DATE ( 2018, 3, 8 ) ;
#78 = VERTEX_POINT ( 'NONE', #116 ) ;
#79 = PRODUCT ( 'Web Model 37689_38778', 'Web Model 37689_38778', '', ( #120 ) ) ;
#80 = AXIS2_PLACEMENT_3D ( 'NONE', #35, #102, #73 ) ;
#81 = ADVANCED_FACE ( 'NONE', ( #8 ), #101, .F. ) ;
#82 = PERSON_AND_ORGANIZATION ( #67, #175 ) ;
#83 = ADVANCED_FACE ( 'NONE', ( #24 ), #138, .T. ) ;
#84 = CC_DESIGN_APPROVAL ( #68, ( #98 ) ) ;
#85 = CC_DESIGN_PERSON_AND_ORGANIZATION_ASSIGNMENT ( #109, #107, ( #79 ) ) ;
#86 = PERSON_AND_ORGANIZATION ( #67, #175 ) ;
#87 = ORIENTED_EDGE ( 'NONE', *, *, #33, .T. ) ;
#88 = CARTESIAN_POINT ( 'NONE',  ( 0.0000000000000000000, 0.0000000000000000000, 3.174999999999999800 ) ) ;
#89 =( NAMED_UNIT ( * ) SI_UNIT ( $, .STERADIAN. ) SOLID_ANGLE_UNIT ( ) );
#90 =( LENGTH_UNIT ( ) NAMED_UNIT ( * ) SI_UNIT ( .MILLI., .METRE. ) );
#91 = DATE_AND_TIME ( #47, #100 ) ;
#92 = DATE_TIME_ROLE ( 'creation_date' ) ;
#93 = VECTOR ( 'NONE', #127, 1000.000000000000000 ) ;
#94 = APPROVAL ( #143, 'UNSPECIFIED' ) ;
#95 = ORIENTED_EDGE ( 'NONE', *, *, #33, .F. ) ;
#96 = DIRECTION ( 'NONE',  ( 1.000000000000000000, 0.0000000000000000000, 0.0000000000000000000 ) ) ;
#97 = LOCAL_TIME ( 14, 46, 48.00000000000000000, #31 ) ;
#98 = PRODUCT_DEFINITION_FORMATION_WITH_SPECIFIED_SOURCE ( 'ANY', '', #79, .NOT_KNOWN. ) ;
#99 = CIRCLE ( 'NONE', #15, 12.69999999999999900 ) ;
#100 = LOCAL_TIME ( 14, 46, 48.00000000000000000, #27 ) ;
#101 = PLANE ( 'NONE',  #64 ) ;
#102 = DIRECTION ( 'NONE',  ( 0.0000000000000000000, 0.0000000000000000000, 1.000000000000000000 ) ) ;
#103 = DIRECTION ( 'NONE',  ( -0.0000000000000000000, -0.0000000000000000000, -1.000000000000000000 ) ) ;
#104 = DATE_AND_TIME ( #77, #174 ) ;
#105 = PERSON_AND_ORGANIZATION ( #67, #175 ) ;
#106 = CC_DESIGN_PERSON_AND_ORGANIZATION_ASSIGNMENT ( #18, #154, ( #98 ) ) ;
#107 = PERSON_AND_ORGANIZATION_ROLE ( 'design_owner' ) ;
#108 = PERSON_AND_ORGANIZATION_ROLE ( 'classification_officer' ) ;
#109 = PERSON_AND_ORGANIZATION ( #67, #175 ) ;
#110 = ORIENTED_EDGE ( 'NONE', *, *, #28, .F. ) ;
#111 = CIRCLE ( 'NONE', #55, 12.69999999999999900 ) ;
#112 = LOCAL_TIME ( 14, 46, 48.00000000000000000, #118 ) ;
#113 = AXIS2_PLACEMENT_3D ( 'NONE', #157, #144, #23 ) ;
#114 = CARTESIAN_POINT ( 'NONE',  ( 0.0000000000000000000, 0.0000000000000000000, -3.174999999999999800 ) ) ;
#115 = EDGE_LOOP ( 'NONE', ( #110, #95 ) ) ;
#116 = CARTESIAN_POINT ( 'NONE',  ( -12.69999999999999900, 0.0000000000000000000, -3.174999999999999800 ) ) ;
#117 = CC_DESIGN_PERSON_AND_ORGANIZATION_ASSIGNMENT ( #34, #108, ( #158 ) ) ;
#118 = COORDINATED_UNIVERSAL_TIME_OFFSET ( 5, 0, .BEHIND. ) ;
#119 = CARTESIAN_POINT ( 'NONE',  ( 0.0000000000000000000, 0.0000000000000000000, -3.174999999999999800 ) ) ;
#120 = MECHANICAL_CONTEXT ( 'NONE', #129, 'mechanical' ) ;
#121 = CC_DESIGN_SECURITY_CLASSIFICATION ( #158, ( #98 ) ) ;
#122 = DATE_TIME_ROLE ( 'classification_date' ) ;
#123 = SHAPE_DEFINITION_REPRESENTATION ( #65, #168 ) ;
#124 = CC_DESIGN_DATE_AND_TIME_ASSIGNMENT ( #91, #92, ( #167 ) ) ;
#125 = EDGE_LOOP ( 'NONE', ( #142, #160 ) ) ;
#126 = CALENDAR_DATE ( 2018, 3, 8 ) ;
#127 = DIRECTION ( 'NONE',  ( -0.0000000000000000000, -0.0000000000000000000, -1.000000000000000000 ) ) ;
#128 = DATE_AND_TIME ( #2, #97 ) ;
#129 = APPLICATION_CONTEXT ( 'configuration controlled 3d designs of mechanical parts and assemblies' ) ;
#130 = SECURITY_CLASSIFICATION_LEVEL ( 'unclassified' ) ;
#131 = DATE_AND_TIME ( #126, #25 ) ;
#132 = AXIS2_PLACEMENT_3D ( 'NONE', #30, #169, #44 ) ;
#133 = DIRECTION ( 'NONE',  ( 1.000000000000000000, 0.0000000000000000000, -0.0000000000000000000 ) ) ;
#134 = CLOSED_SHELL ( 'NONE', ( #5, #136, #83, #81 ) ) ;
#135 = PRODUCT_RELATED_PRODUCT_CATEGORY ( 'detail', '', ( #79 ) ) ;
#136 = ADVANCED_FACE ( 'NONE', ( #147 ), #19, .T. ) ;
#137 = DATE_AND_TIME ( #74, #112 ) ;
#138 = PLANE ( 'NONE',  #113 ) ;
#139 = CIRCLE ( 'NONE', #26, 12.69999999999999900 ) ;
#140 = DIRECTION ( 'NONE',  ( 0.0000000000000000000, 0.0000000000000000000, 1.000000000000000000 ) ) ;
#141 = DIRECTION ( 'NONE',  ( 1.000000000000000000, 0.0000000000000000000, 0.0000000000000000000 ) ) ;
#142 = ORIENTED_EDGE ( 'NONE', *, *, #75, .T. ) ;
#143 = APPROVAL_STATUS ( 'not_yet_approved' ) ;
#144 = DIRECTION ( 'NONE',  ( 0.0000000000000000000, 0.0000000000000000000, 1.000000000000000000 ) ) ;
#145 = APPLICATION_PROTOCOL_DEFINITION ( 'international standard', 'config_control_design', 1994, #43 ) ;
#146 = LINE ( 'NONE', #22, #49 ) ;
#147 = FACE_OUTER_BOUND ( 'NONE', #70, .T. ) ;
#148 =( GEOMETRIC_REPRESENTATION_CONTEXT ( 3 ) GLOBAL_UNCERTAINTY_ASSIGNED_CONTEXT ( ( #149 ) ) GLOBAL_UNIT_ASSIGNED_CONTEXT ( ( #90, #156, #89 ) ) REPRESENTATION_CONTEXT ( 'NONE', 'WORKASPACE' ) );
#149 = UNCERTAINTY_MEASURE_WITH_UNIT (LENGTH_MEASURE( 1.000000000000000100E-005 ), #90, 'distance_accuracy_value', 'NONE');
#150 = CARTESIAN_POINT ( 'NONE',  ( 12.69999999999999900, 1.555301434917138400E-015, 3.174999999999999800 ) ) ;
#151 = DIRECTION ( 'NONE',  ( 0.0000000000000000000, 0.0000000000000000000, 1.000000000000000000 ) ) ;
#152 = CC_DESIGN_PERSON_AND_ORGANIZATION_ASSIGNMENT ( #86, #13, ( #98 ) ) ;
#153 = COORDINATED_UNIVERSAL_TIME_OFFSET ( 5, 0, .BEHIND. ) ;
#154 = PERSON_AND_ORGANIZATION_ROLE ( 'creator' ) ;
#155 = VERTEX_POINT ( 'NONE', #71 ) ;
#156 =( NAMED_UNIT ( * ) PLANE_ANGLE_UNIT ( ) SI_UNIT ( $, .RADIAN. ) );
#157 = CARTESIAN_POINT ( 'NONE',  ( 0.0000000000000000000, 0.0000000000000000000, 3.174999999999999800 ) ) ;
#158 = SECURITY_CLASSIFICATION ( '', '', #130 ) ;
#159 = APPLICATION_PROTOCOL_DEFINITION ( 'international standard', 'config_control_design', 1994, #129 ) ;
#160 = ORIENTED_EDGE ( 'NONE', *, *, #7, .T. ) ;
#161 = MANIFOLD_SOLID_BREP ( 'Boss-Extrude1', #134 ) ;
#162 = APPROVAL ( #45, 'UNSPECIFIED' ) ;
#163 = PERSON_AND_ORGANIZATION ( #67, #175 ) ;
#164 = ORIENTED_EDGE ( 'NONE', *, *, #7, .F. ) ;
#165 = DIRECTION ( 'NONE',  ( -0.0000000000000000000, -0.0000000000000000000, -1.000000000000000000 ) ) ;
#166 = CC_DESIGN_DATE_AND_TIME_ASSIGNMENT ( #131, #122, ( #158 ) ) ;
#167 = PRODUCT_DEFINITION ( 'UNKNOWN', '', #98, #72 ) ;
#168 = ADVANCED_BREP_SHAPE_REPRESENTATION ( 'Web Model 37689_38778', ( #161, #80 ), #148 ) ;
#169 = DIRECTION ( 'NONE',  ( -0.0000000000000000000, -0.0000000000000000000, -1.000000000000000000 ) ) ;
#170 = EDGE_CURVE ( 'NONE', #51, #78, #146, .T. ) ;
#171 = VERTEX_POINT ( 'NONE', #10 ) ;
#172 = CC_DESIGN_APPROVAL ( #162, ( #158 ) ) ;
#173 = APPROVAL_PERSON_ORGANIZATION ( #50, #162, #36 ) ;
#174 = LOCAL_TIME ( 14, 46, 48.00000000000000000, #52 ) ;
#175 = ORGANIZATION ( 'UNSPECIFIED', 'UNSPECIFIED', '' ) ;
ENDSEC;
END-ISO-10303-21;
