ISO-10303-21;
HEADER;
FILE_DESCRIPTION (( 'STEP AP203' ),
    '1' );
FILE_NAME ('Web Model 45581.STEP',
    '2017-01-31T15:18:07',
    ( '' ),
    ( '' ),
    'SwSTEP 2.0',
    'SolidWorks 2016',
    '' );
FILE_SCHEMA (( 'CONFIG_CONTROL_DESIGN' ));
ENDSEC;

DATA;
#1 = DIRECTION ( 'NONE',  ( 0.0000000000000000000, 0.0000000000000000000, 1.000000000000000000 ) ) ;
#2 = APPROVAL ( #31, 'UNSPECIFIED' ) ;
#3 = DATE_TIME_ROLE ( 'creation_date' ) ;
#4 = LOCAL_TIME ( 10, 18, 7.000000000000000000, #163 ) ;
#5 = DATE_AND_TIME ( #115, #35 ) ;
#6 = APPLICATION_PROTOCOL_DEFINITION ( 'international standard', 'config_control_design', 1994, #140 ) ;
#7 = EDGE_LOOP ( 'NONE', ( #146, #175 ) ) ;
#8 = PERSON_AND_ORGANIZATION ( #141, #173 ) ;
#9 = CC_DESIGN_APPROVAL ( #164, ( #169 ) ) ;
#10 = ORIENTED_EDGE ( 'NONE', *, *, #74, .F. ) ;
#11 = VERTEX_POINT ( 'NONE', #165 ) ;
#12 = APPROVAL_DATE_TIME ( #117, #164 ) ;
#13 = CARTESIAN_POINT ( 'NONE',  ( 0.0000000000000000000, 0.0000000000000000000, 0.0000000000000000000 ) ) ;
#14 = CARTESIAN_POINT ( 'NONE',  ( 0.0000000000000000000, 0.0000000000000000000, 0.0000000000000000000 ) ) ;
#15 = VERTEX_POINT ( 'NONE', #121 ) ;
#16 = CARTESIAN_POINT ( 'NONE',  ( 0.0000000000000000000, 0.0000000000000000000, -4.000000000000000000 ) ) ;
#17 = DIRECTION ( 'NONE',  ( 1.000000000000000000, 0.0000000000000000000, 0.0000000000000000000 ) ) ;
#18 = PERSON_AND_ORGANIZATION_ROLE ( 'classification_officer' ) ;
#19 = LOCAL_TIME ( 10, 18, 7.000000000000000000, #21 ) ;
#20 = APPROVAL_ROLE ( '' ) ;
#21 = COORDINATED_UNIVERSAL_TIME_OFFSET ( 5, 0, .BEHIND. ) ;
#22 = VECTOR ( 'NONE', #136, 1000.000000000000000 ) ;
#23 = AXIS2_PLACEMENT_3D ( 'NONE', #133, #93, #17 ) ;
#24 = APPROVAL_DATE_TIME ( #166, #128 ) ;
#25 = COORDINATED_UNIVERSAL_TIME_OFFSET ( 5, 0, .BEHIND. ) ;
#26 = VERTEX_POINT ( 'NONE', #153 ) ;
#27 = PLANE ( 'NONE',  #156 ) ;
#28 = DIRECTION ( 'NONE',  ( 0.0000000000000000000, 0.0000000000000000000, 1.000000000000000000 ) ) ;
#29 = APPROVAL_PERSON_ORGANIZATION ( #81, #128, #20 ) ;
#30 = CC_DESIGN_APPROVAL ( #2, ( #101 ) ) ;
#31 = APPROVAL_STATUS ( 'not_yet_approved' ) ;
#32 = CIRCLE ( 'NONE', #132, 20.00000000000000000 ) ;
#33 = ORIENTED_EDGE ( 'NONE', *, *, #102, .F. ) ;
#34 = EDGE_LOOP ( 'NONE', ( #103, #114 ) ) ;
#35 = LOCAL_TIME ( 10, 18, 7.000000000000000000, #116 ) ;
#36 = DIRECTION ( 'NONE',  ( 1.000000000000000000, 0.0000000000000000000, 0.0000000000000000000 ) ) ;
#37 = CC_DESIGN_DATE_AND_TIME_ASSIGNMENT ( #88, #3, ( #169 ) ) ;
#38 = DIRECTION ( 'NONE',  ( 0.0000000000000000000, 0.0000000000000000000, 1.000000000000000000 ) ) ;
#39 = VERTEX_POINT ( 'NONE', #152 ) ;
#40 = VECTOR ( 'NONE', #42, 1000.000000000000000 ) ;
#41 =( NAMED_UNIT ( * ) PLANE_ANGLE_UNIT ( ) SI_UNIT ( $, .RADIAN. ) );
#42 = DIRECTION ( 'NONE',  ( 0.0000000000000000000, 0.0000000000000000000, 1.000000000000000000 ) ) ;
#43 = DIRECTION ( 'NONE',  ( 1.000000000000000000, 0.0000000000000000000, 0.0000000000000000000 ) ) ;
#44 = FACE_OUTER_BOUND ( 'NONE', #150, .T. ) ;
#45 = AXIS2_PLACEMENT_3D ( 'NONE', #90, #1, #135 ) ;
#46 = CLOSED_SHELL ( 'NONE', ( #106, #171, #148, #59 ) ) ;
#47 = CIRCLE ( 'NONE', #45, 20.00000000000000000 ) ;
#48 = APPROVAL_PERSON_ORGANIZATION ( #8, #2, #67 ) ;
#49 = ORIENTED_EDGE ( 'NONE', *, *, #74, .T. ) ;
#50 = PERSON_AND_ORGANIZATION ( #141, #173 ) ;
#51 = PRODUCT_DEFINITION_SHAPE ( 'NONE', 'NONE',  #169 ) ;
#52 = CC_DESIGN_PERSON_AND_ORGANIZATION_ASSIGNMENT ( #158, #172, ( #101 ) ) ;
#53 = CIRCLE ( 'NONE', #143, 20.00000000000000000 ) ;
#54 = ADVANCED_BREP_SHAPE_REPRESENTATION ( 'Web Model 45581', ( #77, #98 ), #99 ) ;
#55 = DIRECTION ( 'NONE',  ( 1.000000000000000000, 0.0000000000000000000, 0.0000000000000000000 ) ) ;
#56 = DIRECTION ( 'NONE',  ( 0.0000000000000000000, 0.0000000000000000000, 1.000000000000000000 ) ) ;
#57 = CIRCLE ( 'NONE', #127, 20.00000000000000000 ) ;
#58 =( NAMED_UNIT ( * ) SI_UNIT ( $, .STERADIAN. ) SOLID_ANGLE_UNIT ( ) );
#59 = ADVANCED_FACE ( 'NONE', ( #62 ), #27, .T. ) ;
#60 = APPROVAL_STATUS ( 'not_yet_approved' ) ;
#61 = PERSON_AND_ORGANIZATION ( #141, #173 ) ;
#62 = FACE_OUTER_BOUND ( 'NONE', #7, .T. ) ;
#63 = AXIS2_PLACEMENT_3D ( 'NONE', #16, #28, #122 ) ;
#64 = EDGE_CURVE ( 'NONE', #39, #26, #57, .T. ) ;
#65 = CARTESIAN_POINT ( 'NONE',  ( -20.00000000000000000, 2.449293598294706500E-015, -4.000000000000000000 ) ) ;
#66 = CC_DESIGN_PERSON_AND_ORGANIZATION_ASSIGNMENT ( #72, #18, ( #100 ) ) ;
#67 = APPROVAL_ROLE ( '' ) ;
#68 = UNCERTAINTY_MEASURE_WITH_UNIT (LENGTH_MEASURE( 1.000000000000000100E-005 ), #118, 'distance_accuracy_value', 'NONE');
#69 = EDGE_CURVE ( 'NONE', #11, #15, #32, .T. ) ;
#70 = LINE ( 'NONE', #65, #22 ) ;
#71 = DESIGN_CONTEXT ( 'detailed design', #154, 'design' ) ;
#72 = PERSON_AND_ORGANIZATION ( #141, #173 ) ;
#73 = CC_DESIGN_DATE_AND_TIME_ASSIGNMENT ( #5, #83, ( #100 ) ) ;
#74 = EDGE_CURVE ( 'NONE', #39, #15, #159, .T. ) ;
#75 = ORIENTED_EDGE ( 'NONE', *, *, #69, .F. ) ;
#76 = CYLINDRICAL_SURFACE ( 'NONE', #23, 20.00000000000000000 ) ;
#77 = MANIFOLD_SOLID_BREP ( 'Extrude1', #46 ) ;
#78 = FACE_OUTER_BOUND ( 'NONE', #113, .T. ) ;
#79 = DIRECTION ( 'NONE',  ( 1.000000000000000000, 0.0000000000000000000, -0.0000000000000000000 ) ) ;
#80 = DIRECTION ( 'NONE',  ( 1.000000000000000000, 0.0000000000000000000, 0.0000000000000000000 ) ) ;
#81 = PERSON_AND_ORGANIZATION ( #141, #173 ) ;
#82 = DIRECTION ( 'NONE',  ( 0.0000000000000000000, 0.0000000000000000000, 1.000000000000000000 ) ) ;
#83 = DATE_TIME_ROLE ( 'classification_date' ) ;
#84 = SHAPE_DEFINITION_REPRESENTATION ( #51, #54 ) ;
#85 = APPLICATION_PROTOCOL_DEFINITION ( 'international standard', 'config_control_design', 1994, #154 ) ;
#86 = APPROVAL_DATE_TIME ( #155, #2 ) ;
#87 = CALENDAR_DATE ( 2017, 31, 1 ) ;
#88 = DATE_AND_TIME ( #120, #92 ) ;
#89 = CALENDAR_DATE ( 2017, 31, 1 ) ;
#90 = CARTESIAN_POINT ( 'NONE',  ( 0.0000000000000000000, 0.0000000000000000000, -4.000000000000000000 ) ) ;
#91 = DIRECTION ( 'NONE',  ( 0.0000000000000000000, 0.0000000000000000000, 1.000000000000000000 ) ) ;
#92 = LOCAL_TIME ( 10, 18, 7.000000000000000000, #162 ) ;
#93 = DIRECTION ( 'NONE',  ( 0.0000000000000000000, 0.0000000000000000000, 1.000000000000000000 ) ) ;
#94 = PERSON_AND_ORGANIZATION_ROLE ( 'creator' ) ;
#95 = CC_DESIGN_PERSON_AND_ORGANIZATION_ASSIGNMENT ( #61, #126, ( #125 ) ) ;
#96 = APPROVAL_STATUS ( 'not_yet_approved' ) ;
#97 = PERSON_AND_ORGANIZATION_ROLE ( 'creator' ) ;
#98 = AXIS2_PLACEMENT_3D ( 'NONE', #110, #107, #43 ) ;
#99 =( GEOMETRIC_REPRESENTATION_CONTEXT ( 3 ) GLOBAL_UNCERTAINTY_ASSIGNED_CONTEXT ( ( #68 ) ) GLOBAL_UNIT_ASSIGNED_CONTEXT ( ( #118, #41, #58 ) ) REPRESENTATION_CONTEXT ( 'NONE', 'WORKASPACE' ) );
#100 = SECURITY_CLASSIFICATION ( '', '', #142 ) ;
#101 = PRODUCT_DEFINITION_FORMATION_WITH_SPECIFIED_SOURCE ( 'ANY', '', #125, .NOT_KNOWN. ) ;
#102 = EDGE_CURVE ( 'NONE', #15, #11, #53, .T. ) ;
#103 = ORIENTED_EDGE ( 'NONE', *, *, #64, .F. ) ;
#104 = DIRECTION ( 'NONE',  ( 0.0000000000000000000, 0.0000000000000000000, 1.000000000000000000 ) ) ;
#105 = DIRECTION ( 'NONE',  ( 1.000000000000000000, 0.0000000000000000000, 0.0000000000000000000 ) ) ;
#106 = ADVANCED_FACE ( 'NONE', ( #44 ), #147, .T. ) ;
#107 = DIRECTION ( 'NONE',  ( 0.0000000000000000000, 0.0000000000000000000, 1.000000000000000000 ) ) ;
#108 = CALENDAR_DATE ( 2017, 31, 1 ) ;
#109 = CC_DESIGN_PERSON_AND_ORGANIZATION_ASSIGNMENT ( #50, #94, ( #101 ) ) ;
#110 = CARTESIAN_POINT ( 'NONE',  ( 0.0000000000000000000, 0.0000000000000000000, 0.0000000000000000000 ) ) ;
#111 = APPROVAL_ROLE ( '' ) ;
#112 = APPROVAL_PERSON_ORGANIZATION ( #167, #164, #111 ) ;
#113 = EDGE_LOOP ( 'NONE', ( #151, #119, #49, #75 ) ) ;
#114 = ORIENTED_EDGE ( 'NONE', *, *, #138, .F. ) ;
#115 = CALENDAR_DATE ( 2017, 31, 1 ) ;
#116 = COORDINATED_UNIVERSAL_TIME_OFFSET ( 5, 0, .BEHIND. ) ;
#117 = DATE_AND_TIME ( #108, #19 ) ;
#118 =( LENGTH_UNIT ( ) NAMED_UNIT ( * ) SI_UNIT ( .MILLI., .METRE. ) );
#119 = ORIENTED_EDGE ( 'NONE', *, *, #138, .T. ) ;
#120 = CALENDAR_DATE ( 2017, 31, 1 ) ;
#121 = CARTESIAN_POINT ( 'NONE',  ( 20.00000000000000000, 0.0000000000000000000, 0.0000000000000000000 ) ) ;
#122 = DIRECTION ( 'NONE',  ( 1.000000000000000000, 0.0000000000000000000, -0.0000000000000000000 ) ) ;
#123 = CC_DESIGN_PERSON_AND_ORGANIZATION_ASSIGNMENT ( #131, #97, ( #169 ) ) ;
#124 = MECHANICAL_CONTEXT ( 'NONE', #140, 'mechanical' ) ;
#125 = PRODUCT ( 'Web Model 45581', 'Web Model 45581', '', ( #124 ) ) ;
#126 = PERSON_AND_ORGANIZATION_ROLE ( 'design_owner' ) ;
#127 = AXIS2_PLACEMENT_3D ( 'NONE', #137, #56, #80 ) ;
#128 = APPROVAL ( #96, 'UNSPECIFIED' ) ;
#129 = LOCAL_TIME ( 10, 18, 7.000000000000000000, #25 ) ;
#130 = AXIS2_PLACEMENT_3D ( 'NONE', #168, #82, #55 ) ;
#131 = PERSON_AND_ORGANIZATION ( #141, #173 ) ;
#132 = AXIS2_PLACEMENT_3D ( 'NONE', #14, #91, #36 ) ;
#133 = CARTESIAN_POINT ( 'NONE',  ( 0.0000000000000000000, 0.0000000000000000000, -4.000000000000000000 ) ) ;
#134 = CC_DESIGN_SECURITY_CLASSIFICATION ( #100, ( #101 ) ) ;
#135 = DIRECTION ( 'NONE',  ( 1.000000000000000000, 0.0000000000000000000, 0.0000000000000000000 ) ) ;
#136 = DIRECTION ( 'NONE',  ( 0.0000000000000000000, 0.0000000000000000000, 1.000000000000000000 ) ) ;
#137 = CARTESIAN_POINT ( 'NONE',  ( 0.0000000000000000000, 0.0000000000000000000, -4.000000000000000000 ) ) ;
#138 = EDGE_CURVE ( 'NONE', #26, #39, #47, .T. ) ;
#139 = PLANE ( 'NONE',  #63 ) ;
#140 = APPLICATION_CONTEXT ( 'configuration controlled 3d designs of mechanical parts and assemblies' ) ;
#141 = PERSON ( 'UNSPECIFIED', 'UNSPECIFIED', 'UNSPECIFIED', ('UNSPECIFIED'), ('UNSPECIFIED'), ('UNSPECIFIED') ) ;
#142 = SECURITY_CLASSIFICATION_LEVEL ( 'unclassified' ) ;
#143 = AXIS2_PLACEMENT_3D ( 'NONE', #13, #104, #105 ) ;
#144 = EDGE_CURVE ( 'NONE', #26, #11, #70, .T. ) ;
#145 = FACE_OUTER_BOUND ( 'NONE', #34, .T. ) ;
#146 = ORIENTED_EDGE ( 'NONE', *, *, #102, .T. ) ;
#147 = CYLINDRICAL_SURFACE ( 'NONE', #130, 20.00000000000000000 ) ;
#148 = ADVANCED_FACE ( 'NONE', ( #145 ), #139, .F. ) ;
#149 = CARTESIAN_POINT ( 'NONE',  ( 20.00000000000000000, 0.0000000000000000000, -4.000000000000000000 ) ) ;
#150 = EDGE_LOOP ( 'NONE', ( #160, #157, #33, #10 ) ) ;
#151 = ORIENTED_EDGE ( 'NONE', *, *, #144, .F. ) ;
#152 = CARTESIAN_POINT ( 'NONE',  ( 20.00000000000000000, 0.0000000000000000000, -4.000000000000000000 ) ) ;
#153 = CARTESIAN_POINT ( 'NONE',  ( -20.00000000000000000, 2.449293598294706500E-015, -4.000000000000000000 ) ) ;
#154 = APPLICATION_CONTEXT ( 'configuration controlled 3d designs of mechanical parts and assemblies' ) ;
#155 = DATE_AND_TIME ( #89, #129 ) ;
#156 = AXIS2_PLACEMENT_3D ( 'NONE', #170, #38, #79 ) ;
#157 = ORIENTED_EDGE ( 'NONE', *, *, #144, .T. ) ;
#158 = PERSON_AND_ORGANIZATION ( #141, #173 ) ;
#159 = LINE ( 'NONE', #149, #40 ) ;
#160 = ORIENTED_EDGE ( 'NONE', *, *, #64, .T. ) ;
#161 = PRODUCT_RELATED_PRODUCT_CATEGORY ( 'detail', '', ( #125 ) ) ;
#162 = COORDINATED_UNIVERSAL_TIME_OFFSET ( 5, 0, .BEHIND. ) ;
#163 = COORDINATED_UNIVERSAL_TIME_OFFSET ( 5, 0, .BEHIND. ) ;
#164 = APPROVAL ( #60, 'UNSPECIFIED' ) ;
#165 = CARTESIAN_POINT ( 'NONE',  ( -20.00000000000000000, 2.449293598294706500E-015, 0.0000000000000000000 ) ) ;
#166 = DATE_AND_TIME ( #87, #4 ) ;
#167 = PERSON_AND_ORGANIZATION ( #141, #173 ) ;
#168 = CARTESIAN_POINT ( 'NONE',  ( 0.0000000000000000000, 0.0000000000000000000, -4.000000000000000000 ) ) ;
#169 = PRODUCT_DEFINITION ( 'UNKNOWN', '', #101, #71 ) ;
#170 = CARTESIAN_POINT ( 'NONE',  ( 0.0000000000000000000, 0.0000000000000000000, 0.0000000000000000000 ) ) ;
#171 = ADVANCED_FACE ( 'NONE', ( #78 ), #76, .T. ) ;
#172 = PERSON_AND_ORGANIZATION_ROLE ( 'design_supplier' ) ;
#173 = ORGANIZATION ( 'UNSPECIFIED', 'UNSPECIFIED', '' ) ;
#174 = CC_DESIGN_APPROVAL ( #128, ( #100 ) ) ;
#175 = ORIENTED_EDGE ( 'NONE', *, *, #69, .T. ) ;
ENDSEC;
END-ISO-10303-21;
