ISO-10303-21;
HEADER;
FILE_DESCRIPTION (( 'STEP AP203' ),
    '1' );
FILE_NAME ('Web Model 39279_39279.step',
    '2018-10-09T13:22:05',
    ( '' ),
    ( '' ),
    'SwSTEP 2.0',
    'SolidWorks 2016',
    '' );
FILE_SCHEMA (( 'CONFIG_CONTROL_DESIGN' ));
ENDSEC;

DATA;
#1 = DIRECTION ( 'NONE',  ( -1.000000000000000000, 0.0000000000000000000, 0.0000000000000000000 ) ) ;
#2 = DATE_AND_TIME ( #30, #57 ) ;
#3 = ORIENTED_EDGE ( 'NONE', *, *, #51, .F. ) ;
#4 = APPROVAL_STATUS ( 'not_yet_approved' ) ;
#5 = DATE_AND_TIME ( #150, #34 ) ;
#6 = AXIS2_PLACEMENT_3D ( 'NONE', #13, #15, #97 ) ;
#7 = EDGE_LOOP ( 'NONE', ( #156, #152 ) ) ;
#8 = LOCAL_TIME ( 9, 22, 5.000000000000000000, #65 ) ;
#9 = PERSON_AND_ORGANIZATION ( #46, #142 ) ;
#10 = EDGE_CURVE ( 'NONE', #26, #53, #127, .T. ) ;
#11 = EDGE_LOOP ( 'NONE', ( #130, #119, #132, #107 ) ) ;
#12 = APPROVAL ( #125, 'UNSPECIFIED' ) ;
#13 = CARTESIAN_POINT ( 'NONE',  ( 0.0000000000000000000, 0.0000000000000000000, -0.5000000000000000000 ) ) ;
#14 = VECTOR ( 'NONE', #40, 1000.000000000000000 ) ;
#15 = DIRECTION ( 'NONE',  ( 0.0000000000000000000, 0.0000000000000000000, 1.000000000000000000 ) ) ;
#16 =( GEOMETRIC_REPRESENTATION_CONTEXT ( 3 ) GLOBAL_UNCERTAINTY_ASSIGNED_CONTEXT ( ( #111 ) ) GLOBAL_UNIT_ASSIGNED_CONTEXT ( ( #126, #100, #79 ) ) REPRESENTATION_CONTEXT ( 'NONE', 'WORKASPACE' ) );
#17 = CARTESIAN_POINT ( 'NONE',  ( 0.0000000000000000000, 0.0000000000000000000, 0.0000000000000000000 ) ) ;
#18 = APPLICATION_CONTEXT ( 'configuration controlled 3d designs of mechanical parts and assemblies' ) ;
#19 = MECHANICAL_CONTEXT ( 'NONE', #151, 'mechanical' ) ;
#20 = CC_DESIGN_PERSON_AND_ORGANIZATION_ASSIGNMENT ( #9, #113, ( #136 ) ) ;
#21 = FACE_OUTER_BOUND ( 'NONE', #29, .T. ) ;
#22 = APPROVAL ( #99, 'UNSPECIFIED' ) ;
#23 = CARTESIAN_POINT ( 'NONE',  ( -6.349999999999999600, 0.0000000000000000000, -0.5000000000000000000 ) ) ;
#24 = ADVANCED_FACE ( 'NONE', ( #58 ), #144, .F. ) ;
#25 = CARTESIAN_POINT ( 'NONE',  ( 6.349999999999999600, 7.776507174585692200E-016, 0.5000000000000000000 ) ) ;
#26 = VERTEX_POINT ( 'NONE', #160 ) ;
#27 = APPROVAL_DATE_TIME ( #2, #22 ) ;
#28 = PRODUCT_DEFINITION_FORMATION_WITH_SPECIFIED_SOURCE ( 'ANY', '', #31, .NOT_KNOWN. ) ;
#29 = EDGE_LOOP ( 'NONE', ( #3, #39, #87, #81 ) ) ;
#30 = CALENDAR_DATE ( 2018, 9, 10 ) ;
#31 = PRODUCT ( 'Web Model 39279_39279', 'Web Model 39279_39279', '', ( #19 ) ) ;
#32 = COORDINATED_UNIVERSAL_TIME_OFFSET ( 5, 0, .BEHIND. ) ;
#33 = APPROVAL ( #4, 'UNSPECIFIED' ) ;
#34 = LOCAL_TIME ( 9, 22, 5.000000000000000000, #171 ) ;
#35 = PLANE ( 'NONE',  #92 ) ;
#36 = DIRECTION ( 'NONE',  ( 1.000000000000000000, 0.0000000000000000000, 0.0000000000000000000 ) ) ;
#37 = APPLICATION_PROTOCOL_DEFINITION ( 'international standard', 'config_control_design', 1994, #151 ) ;
#38 = PERSON_AND_ORGANIZATION_ROLE ( 'design_supplier' ) ;
#39 = ORIENTED_EDGE ( 'NONE', *, *, #147, .T. ) ;
#40 = DIRECTION ( 'NONE',  ( -0.0000000000000000000, -0.0000000000000000000, -1.000000000000000000 ) ) ;
#41 = EDGE_CURVE ( 'NONE', #45, #53, #139, .T. ) ;
#42 = SECURITY_CLASSIFICATION_LEVEL ( 'unclassified' ) ;
#43 = CARTESIAN_POINT ( 'NONE',  ( 0.0000000000000000000, 0.0000000000000000000, -0.5000000000000000000 ) ) ;
#44 = DATE_AND_TIME ( #155, #63 ) ;
#45 = VERTEX_POINT ( 'NONE', #77 ) ;
#46 = PERSON ( 'UNSPECIFIED', 'UNSPECIFIED', 'UNSPECIFIED', ('UNSPECIFIED'), ('UNSPECIFIED'), ('UNSPECIFIED') ) ;
#47 = DIRECTION ( 'NONE',  ( -1.000000000000000000, 0.0000000000000000000, 0.0000000000000000000 ) ) ;
#48 = CYLINDRICAL_SURFACE ( 'NONE', #101, 6.349999999999999600 ) ;
#49 = CARTESIAN_POINT ( 'NONE',  ( 0.0000000000000000000, 0.0000000000000000000, 0.5000000000000000000 ) ) ;
#50 = COORDINATED_UNIVERSAL_TIME_OFFSET ( 5, 0, .BEHIND. ) ;
#51 = EDGE_CURVE ( 'NONE', #123, #26, #72, .T. ) ;
#52 = DIRECTION ( 'NONE',  ( 0.0000000000000000000, 0.0000000000000000000, 1.000000000000000000 ) ) ;
#53 = VERTEX_POINT ( 'NONE', #23 ) ;
#54 = PRODUCT_DEFINITION_SHAPE ( 'NONE', 'NONE',  #136 ) ;
#55 = COORDINATED_UNIVERSAL_TIME_OFFSET ( 5, 0, .BEHIND. ) ;
#56 = EDGE_LOOP ( 'NONE', ( #173, #91 ) ) ;
#57 = LOCAL_TIME ( 9, 22, 5.000000000000000000, #32 ) ;
#58 = FACE_OUTER_BOUND ( 'NONE', #56, .T. ) ;
#59 = CC_DESIGN_APPROVAL ( #33, ( #28 ) ) ;
#60 = DIRECTION ( 'NONE',  ( -0.0000000000000000000, -0.0000000000000000000, -1.000000000000000000 ) ) ;
#61 = DIRECTION ( 'NONE',  ( 1.000000000000000000, 0.0000000000000000000, -0.0000000000000000000 ) ) ;
#62 = DIRECTION ( 'NONE',  ( 0.0000000000000000000, 0.0000000000000000000, 1.000000000000000000 ) ) ;
#63 = LOCAL_TIME ( 9, 22, 5.000000000000000000, #50 ) ;
#64 = MANIFOLD_SOLID_BREP ( 'Boss-Extrude1', #114 ) ;
#65 = COORDINATED_UNIVERSAL_TIME_OFFSET ( 5, 0, .BEHIND. ) ;
#66 = PERSON_AND_ORGANIZATION_ROLE ( 'design_owner' ) ;
#67 = DIRECTION ( 'NONE',  ( 1.000000000000000000, 0.0000000000000000000, 0.0000000000000000000 ) ) ;
#68 = AXIS2_PLACEMENT_3D ( 'NONE', #17, #52, #67 ) ;
#69 = APPLICATION_PROTOCOL_DEFINITION ( 'international standard', 'config_control_design', 1994, #18 ) ;
#70 = PERSON_AND_ORGANIZATION ( #46, #142 ) ;
#71 = CC_DESIGN_PERSON_AND_ORGANIZATION_ASSIGNMENT ( #73, #38, ( #28 ) ) ;
#72 = CIRCLE ( 'NONE', #159, 6.349999999999999600 ) ;
#73 = PERSON_AND_ORGANIZATION ( #46, #142 ) ;
#74 = AXIS2_PLACEMENT_3D ( 'NONE', #109, #120, #47 ) ;
#75 = CC_DESIGN_APPROVAL ( #22, ( #136 ) ) ;
#76 = DIRECTION ( 'NONE',  ( 0.0000000000000000000, 0.0000000000000000000, 1.000000000000000000 ) ) ;
#77 = CARTESIAN_POINT ( 'NONE',  ( 6.349999999999999600, 7.776507174585692200E-016, -0.5000000000000000000 ) ) ;
#78 = APPROVAL_PERSON_ORGANIZATION ( #163, #33, #167 ) ;
#79 =( NAMED_UNIT ( * ) SI_UNIT ( $, .STERADIAN. ) SOLID_ANGLE_UNIT ( ) );
#80 = EDGE_CURVE ( 'NONE', #26, #123, #95, .T. ) ;
#81 = ORIENTED_EDGE ( 'NONE', *, *, #10, .F. ) ;
#82 = CALENDAR_DATE ( 2018, 9, 10 ) ;
#83 = APPROVAL_ROLE ( '' ) ;
#84 = PERSON_AND_ORGANIZATION_ROLE ( 'classification_officer' ) ;
#85 = PERSON_AND_ORGANIZATION ( #46, #142 ) ;
#86 = SHAPE_DEFINITION_REPRESENTATION ( #54, #89 ) ;
#87 = ORIENTED_EDGE ( 'NONE', *, *, #41, .T. ) ;
#88 = CC_DESIGN_PERSON_AND_ORGANIZATION_ASSIGNMENT ( #122, #116, ( #28 ) ) ;
#89 = ADVANCED_BREP_SHAPE_REPRESENTATION ( 'Web Model 39279_39279', ( #64, #68 ), #16 ) ;
#90 = APPROVAL_DATE_TIME ( #128, #33 ) ;
#91 = ORIENTED_EDGE ( 'NONE', *, *, #41, .F. ) ;
#92 = AXIS2_PLACEMENT_3D ( 'NONE', #133, #145, #61 ) ;
#93 = PERSON_AND_ORGANIZATION ( #46, #142 ) ;
#94 = CARTESIAN_POINT ( 'NONE',  ( 0.0000000000000000000, 0.0000000000000000000, 0.5000000000000000000 ) ) ;
#95 = CIRCLE ( 'NONE', #170, 6.349999999999999600 ) ;
#96 = DIRECTION ( 'NONE',  ( 0.0000000000000000000, 0.0000000000000000000, 1.000000000000000000 ) ) ;
#97 = DIRECTION ( 'NONE',  ( 1.000000000000000000, 0.0000000000000000000, 0.0000000000000000000 ) ) ;
#98 = LINE ( 'NONE', #124, #14 ) ;
#99 = APPROVAL_STATUS ( 'not_yet_approved' ) ;
#100 =( NAMED_UNIT ( * ) PLANE_ANGLE_UNIT ( ) SI_UNIT ( $, .RADIAN. ) );
#101 = AXIS2_PLACEMENT_3D ( 'NONE', #94, #60, #1 ) ;
#102 = FACE_OUTER_BOUND ( 'NONE', #11, .T. ) ;
#103 = CC_DESIGN_APPROVAL ( #12, ( #108 ) ) ;
#104 = CC_DESIGN_PERSON_AND_ORGANIZATION_ASSIGNMENT ( #138, #66, ( #31 ) ) ;
#105 = LOCAL_TIME ( 9, 22, 5.000000000000000000, #55 ) ;
#106 = ADVANCED_FACE ( 'NONE', ( #102 ), #48, .T. ) ;
#107 = ORIENTED_EDGE ( 'NONE', *, *, #129, .T. ) ;
#108 = SECURITY_CLASSIFICATION ( '', '', #42 ) ;
#109 = CARTESIAN_POINT ( 'NONE',  ( 0.0000000000000000000, 0.0000000000000000000, 0.5000000000000000000 ) ) ;
#110 = CARTESIAN_POINT ( 'NONE',  ( -6.349999999999999600, 0.0000000000000000000, 0.5000000000000000000 ) ) ;
#111 = UNCERTAINTY_MEASURE_WITH_UNIT (LENGTH_MEASURE( 1.000000000000000100E-005 ), #126, 'distance_accuracy_value', 'NONE');
#112 = ADVANCED_FACE ( 'NONE', ( #21 ), #153, .T. ) ;
#113 = PERSON_AND_ORGANIZATION_ROLE ( 'creator' ) ;
#114 = CLOSED_SHELL ( 'NONE', ( #112, #106, #121, #24 ) ) ;
#115 = DATE_AND_TIME ( #82, #8 ) ;
#116 = PERSON_AND_ORGANIZATION_ROLE ( 'creator' ) ;
#117 = DIRECTION ( 'NONE',  ( 1.000000000000000000, 0.0000000000000000000, 0.0000000000000000000 ) ) ;
#118 = CC_DESIGN_PERSON_AND_ORGANIZATION_ASSIGNMENT ( #93, #84, ( #108 ) ) ;
#119 = ORIENTED_EDGE ( 'NONE', *, *, #80, .F. ) ;
#120 = DIRECTION ( 'NONE',  ( -0.0000000000000000000, -0.0000000000000000000, -1.000000000000000000 ) ) ;
#121 = ADVANCED_FACE ( 'NONE', ( #161 ), #35, .T. ) ;
#122 = PERSON_AND_ORGANIZATION ( #46, #142 ) ;
#123 = VERTEX_POINT ( 'NONE', #25 ) ;
#124 = CARTESIAN_POINT ( 'NONE',  ( 6.349999999999999600, 7.776507174585692200E-016, 0.5000000000000000000 ) ) ;
#125 = APPROVAL_STATUS ( 'not_yet_approved' ) ;
#126 =( LENGTH_UNIT ( ) NAMED_UNIT ( * ) SI_UNIT ( .MILLI., .METRE. ) );
#127 = LINE ( 'NONE', #110, #149 ) ;
#128 = DATE_AND_TIME ( #175, #105 ) ;
#129 = EDGE_CURVE ( 'NONE', #53, #45, #168, .T. ) ;
#130 = ORIENTED_EDGE ( 'NONE', *, *, #147, .F. ) ;
#131 = APPROVAL_PERSON_ORGANIZATION ( #70, #22, #83 ) ;
#132 = ORIENTED_EDGE ( 'NONE', *, *, #10, .T. ) ;
#133 = CARTESIAN_POINT ( 'NONE',  ( 0.0000000000000000000, 0.0000000000000000000, 0.5000000000000000000 ) ) ;
#134 = DIRECTION ( 'NONE',  ( 1.000000000000000000, 0.0000000000000000000, -0.0000000000000000000 ) ) ;
#135 = DIRECTION ( 'NONE',  ( -0.0000000000000000000, -0.0000000000000000000, -1.000000000000000000 ) ) ;
#136 = PRODUCT_DEFINITION ( 'UNKNOWN', '', #28, #172 ) ;
#137 = APPROVAL_ROLE ( '' ) ;
#138 = PERSON_AND_ORGANIZATION ( #46, #142 ) ;
#139 = CIRCLE ( 'NONE', #6, 6.349999999999999600 ) ;
#140 = APPROVAL_DATE_TIME ( #5, #12 ) ;
#141 = AXIS2_PLACEMENT_3D ( 'NONE', #43, #165, #117 ) ;
#142 = ORGANIZATION ( 'UNSPECIFIED', 'UNSPECIFIED', '' ) ;
#143 = CARTESIAN_POINT ( 'NONE',  ( 0.0000000000000000000, 0.0000000000000000000, -0.5000000000000000000 ) ) ;
#144 = PLANE ( 'NONE',  #154 ) ;
#145 = DIRECTION ( 'NONE',  ( 0.0000000000000000000, 0.0000000000000000000, 1.000000000000000000 ) ) ;
#146 = DIRECTION ( 'NONE',  ( 1.000000000000000000, 0.0000000000000000000, 0.0000000000000000000 ) ) ;
#147 = EDGE_CURVE ( 'NONE', #123, #45, #98, .T. ) ;
#148 = DATE_TIME_ROLE ( 'creation_date' ) ;
#149 = VECTOR ( 'NONE', #135, 1000.000000000000000 ) ;
#150 = CALENDAR_DATE ( 2018, 9, 10 ) ;
#151 = APPLICATION_CONTEXT ( 'configuration controlled 3d designs of mechanical parts and assemblies' ) ;
#152 = ORIENTED_EDGE ( 'NONE', *, *, #51, .T. ) ;
#153 = CYLINDRICAL_SURFACE ( 'NONE', #74, 6.349999999999999600 ) ;
#154 = AXIS2_PLACEMENT_3D ( 'NONE', #143, #96, #134 ) ;
#155 = CALENDAR_DATE ( 2018, 9, 10 ) ;
#156 = ORIENTED_EDGE ( 'NONE', *, *, #80, .T. ) ;
#157 = CC_DESIGN_SECURITY_CLASSIFICATION ( #108, ( #28 ) ) ;
#158 = CARTESIAN_POINT ( 'NONE',  ( 0.0000000000000000000, 0.0000000000000000000, 0.5000000000000000000 ) ) ;
#159 = AXIS2_PLACEMENT_3D ( 'NONE', #49, #62, #146 ) ;
#160 = CARTESIAN_POINT ( 'NONE',  ( -6.349999999999999600, 0.0000000000000000000, 0.5000000000000000000 ) ) ;
#161 = FACE_OUTER_BOUND ( 'NONE', #7, .T. ) ;
#162 = DATE_TIME_ROLE ( 'classification_date' ) ;
#163 = PERSON_AND_ORGANIZATION ( #46, #142 ) ;
#164 = APPROVAL_PERSON_ORGANIZATION ( #85, #12, #137 ) ;
#165 = DIRECTION ( 'NONE',  ( 0.0000000000000000000, 0.0000000000000000000, 1.000000000000000000 ) ) ;
#166 = CC_DESIGN_DATE_AND_TIME_ASSIGNMENT ( #44, #148, ( #136 ) ) ;
#167 = APPROVAL_ROLE ( '' ) ;
#168 = CIRCLE ( 'NONE', #141, 6.349999999999999600 ) ;
#169 = PRODUCT_RELATED_PRODUCT_CATEGORY ( 'detail', '', ( #31 ) ) ;
#170 = AXIS2_PLACEMENT_3D ( 'NONE', #158, #76, #36 ) ;
#171 = COORDINATED_UNIVERSAL_TIME_OFFSET ( 5, 0, .BEHIND. ) ;
#172 = DESIGN_CONTEXT ( 'detailed design', #18, 'design' ) ;
#173 = ORIENTED_EDGE ( 'NONE', *, *, #129, .F. ) ;
#174 = CC_DESIGN_DATE_AND_TIME_ASSIGNMENT ( #115, #162, ( #108 ) ) ;
#175 = CALENDAR_DATE ( 2018, 9, 10 ) ;
ENDSEC;
END-ISO-10303-21;
