ISO-10303-21;
HEADER;
FILE_DESCRIPTION (( 'STEP AP203' ),
    '1' );
FILE_NAME ('Web Model 62607_37072.step',
    '2017-09-06T14:19:57',
    ( '' ),
    ( '' ),
    'SwSTEP 2.0',
    'SolidWorks 2016',
    '' );
FILE_SCHEMA (( 'CONFIG_CONTROL_DESIGN' ));
ENDSEC;

DATA;
#1 = DIRECTION ( 'NONE',  ( 1.000000000000000000, 0.0000000000000000000, -0.0000000000000000000 ) ) ;
#2 = LOCAL_TIME ( 10, 19, 57.00000000000000000, #50 ) ;
#3 = VECTOR ( 'NONE', #58, 1000.000000000000000 ) ;
#4 = AXIS2_PLACEMENT_3D ( 'NONE', #79, #230, #60 ) ;
#5 = DATE_AND_TIME ( #41, #2 ) ;
#6 = EDGE_LOOP ( 'NONE', ( #119, #51, #173, #49 ) ) ;
#7 = CC_DESIGN_SECURITY_CLASSIFICATION ( #48, ( #121 ) ) ;
#8 = DIRECTION ( 'NONE',  ( -0.0000000000000000000, -0.0000000000000000000, -1.000000000000000000 ) ) ;
#9 = DIRECTION ( 'NONE',  ( -0.0000000000000000000, 0.0000000000000000000, 1.000000000000000000 ) ) ;
#10 = CALENDAR_DATE ( 2017, 6, 9 ) ;
#11 = FACE_OUTER_BOUND ( 'NONE', #34, .T. ) ;
#12 = ORIENTED_EDGE ( 'NONE', *, *, #135, .T. ) ;
#13 = CC_DESIGN_APPROVAL ( #217, ( #121 ) ) ;
#14 = ORIENTED_EDGE ( 'NONE', *, *, #211, .T. ) ;
#15 = PERSON_AND_ORGANIZATION_ROLE ( 'design_supplier' ) ;
#16 = PERSON_AND_ORGANIZATION ( #112, #125 ) ;
#17 = VECTOR ( 'NONE', #55, 1000.000000000000000 ) ;
#18 = PLANE ( 'NONE',  #231 ) ;
#19 = CARTESIAN_POINT ( 'NONE',  ( -37.50000000000000000, 37.50000000000000000, 4.000000000000000000 ) ) ;
#20 = UNCERTAINTY_MEASURE_WITH_UNIT (LENGTH_MEASURE( 1.000000000000000100E-005 ), #22, 'distance_accuracy_value', 'NONE');
#21 = APPROVAL_DATE_TIME ( #65, #130 ) ;
#22 =( LENGTH_UNIT ( ) NAMED_UNIT ( * ) SI_UNIT ( .MILLI., .METRE. ) );
#23 = ORIENTED_EDGE ( 'NONE', *, *, #110, .F. ) ;
#24 = DESIGN_CONTEXT ( 'detailed design', #25, 'design' ) ;
#25 = APPLICATION_CONTEXT ( 'configuration controlled 3d designs of mechanical parts and assemblies' ) ;
#26 = COORDINATED_UNIVERSAL_TIME_OFFSET ( 5, 0, .BEHIND. ) ;
#27 = APPROVAL_STATUS ( 'not_yet_approved' ) ;
#28 = PLANE ( 'NONE',  #4 ) ;
#29 = ADVANCED_FACE ( 'NONE', ( #141 ), #54, .F. ) ;
#30 = DATE_TIME_ROLE ( 'classification_date' ) ;
#31 = ORIENTED_EDGE ( 'NONE', *, *, #117, .T. ) ;
#32 = CC_DESIGN_PERSON_AND_ORGANIZATION_ASSIGNMENT ( #210, #44, ( #35 ) ) ;
#33 = LINE ( 'NONE', #37, #226 ) ;
#34 = EDGE_LOOP ( 'NONE', ( #14, #102, #12, #43 ) ) ;
#35 = PRODUCT_DEFINITION ( 'UNKNOWN', '', #121, #24 ) ;
#36 = CARTESIAN_POINT ( 'NONE',  ( 37.50000000000000000, -37.50000000000000000, 0.0000000000000000000 ) ) ;
#37 = CARTESIAN_POINT ( 'NONE',  ( 37.50000000000000000, 37.50000000000000000, 4.000000000000000000 ) ) ;
#38 = CARTESIAN_POINT ( 'NONE',  ( -37.50000000000000000, 37.50000000000000000, 4.000000000000000000 ) ) ;
#39 = CC_DESIGN_PERSON_AND_ORGANIZATION_ASSIGNMENT ( #205, #180, ( #121 ) ) ;
#40 = PERSON_AND_ORGANIZATION_ROLE ( 'design_owner' ) ;
#41 = CALENDAR_DATE ( 2017, 6, 9 ) ;
#42 = ORIENTED_EDGE ( 'NONE', *, *, #135, .F. ) ;
#43 = ORIENTED_EDGE ( 'NONE', *, *, #66, .T. ) ;
#44 = PERSON_AND_ORGANIZATION_ROLE ( 'creator' ) ;
#45 = PLANE ( 'NONE',  #127 ) ;
#46 = CARTESIAN_POINT ( 'NONE',  ( -37.50000000000000000, -37.50000000000000000, 0.0000000000000000000 ) ) ;
#47 = COORDINATED_UNIVERSAL_TIME_OFFSET ( 5, 0, .BEHIND. ) ;
#48 = SECURITY_CLASSIFICATION ( '', '', #81 ) ;
#49 = ORIENTED_EDGE ( 'NONE', *, *, #170, .F. ) ;
#50 = COORDINATED_UNIVERSAL_TIME_OFFSET ( 5, 0, .BEHIND. ) ;
#51 = ORIENTED_EDGE ( 'NONE', *, *, #117, .F. ) ;
#52 = PERSON_AND_ORGANIZATION ( #112, #125 ) ;
#53 = VECTOR ( 'NONE', #128, 1000.000000000000000 ) ;
#54 = PLANE ( 'NONE',  #195 ) ;
#55 = DIRECTION ( 'NONE',  ( -0.0000000000000000000, -0.0000000000000000000, -1.000000000000000000 ) ) ;
#56 = CALENDAR_DATE ( 2017, 6, 9 ) ;
#57 = LINE ( 'NONE', #148, #200 ) ;
#58 = DIRECTION ( 'NONE',  ( -1.000000000000000000, -0.0000000000000000000, -0.0000000000000000000 ) ) ;
#59 = VERTEX_POINT ( 'NONE', #222 ) ;
#60 = DIRECTION ( 'NONE',  ( 0.0000000000000000000, 0.0000000000000000000, 1.000000000000000000 ) ) ;
#61 = VERTEX_POINT ( 'NONE', #168 ) ;
#62 = SHAPE_DEFINITION_REPRESENTATION ( #74, #155 ) ;
#63 = DIRECTION ( 'NONE',  ( 0.0000000000000000000, -1.000000000000000000, 0.0000000000000000000 ) ) ;
#64 = LINE ( 'NONE', #149, #17 ) ;
#65 = DATE_AND_TIME ( #114, #182 ) ;
#66 = EDGE_CURVE ( 'NONE', #59, #154, #201, .T. ) ;
#67 = EDGE_LOOP ( 'NONE', ( #31, #212, #152, #215 ) ) ;
#68 = CC_DESIGN_PERSON_AND_ORGANIZATION_ASSIGNMENT ( #233, #40, ( #232 ) ) ;
#69 = DIRECTION ( 'NONE',  ( 0.0000000000000000000, -0.0000000000000000000, -1.000000000000000000 ) ) ;
#70 = PERSON_AND_ORGANIZATION ( #112, #125 ) ;
#71 =( GEOMETRIC_REPRESENTATION_CONTEXT ( 3 ) GLOBAL_UNCERTAINTY_ASSIGNED_CONTEXT ( ( #20 ) ) GLOBAL_UNIT_ASSIGNED_CONTEXT ( ( #22, #191, #157 ) ) REPRESENTATION_CONTEXT ( 'NONE', 'WORKASPACE' ) );
#72 = DIRECTION ( 'NONE',  ( -0.0000000000000000000, 0.0000000000000000000, -1.000000000000000000 ) ) ;
#73 = LINE ( 'NONE', #193, #136 ) ;
#74 = PRODUCT_DEFINITION_SHAPE ( 'NONE', 'NONE',  #35 ) ;
#75 = APPLICATION_PROTOCOL_DEFINITION ( 'international standard', 'config_control_design', 1994, #109 ) ;
#76 = DIRECTION ( 'NONE',  ( 1.000000000000000000, 0.0000000000000000000, 0.0000000000000000000 ) ) ;
#77 = EDGE_CURVE ( 'NONE', #154, #179, #194, .T. ) ;
#78 = VECTOR ( 'NONE', #63, 1000.000000000000000 ) ;
#79 = CARTESIAN_POINT ( 'NONE',  ( 37.50000000000000000, 37.50000000000000000, 4.000000000000000000 ) ) ;
#80 = ORIENTED_EDGE ( 'NONE', *, *, #118, .T. ) ;
#81 = SECURITY_CLASSIFICATION_LEVEL ( 'unclassified' ) ;
#82 = ADVANCED_FACE ( 'NONE', ( #164 ), #169, .F. ) ;
#83 = APPROVAL ( #162, 'UNSPECIFIED' ) ;
#84 = LINE ( 'NONE', #156, #78 ) ;
#85 = MANIFOLD_SOLID_BREP ( 'Extrude1', #165 ) ;
#86 = VECTOR ( 'NONE', #161, 1000.000000000000000 ) ;
#87 = ORIENTED_EDGE ( 'NONE', *, *, #77, .T. ) ;
#88 = VECTOR ( 'NONE', #221, 1000.000000000000000 ) ;
#89 = DIRECTION ( 'NONE',  ( 0.0000000000000000000, 1.000000000000000000, 0.0000000000000000000 ) ) ;
#90 = CARTESIAN_POINT ( 'NONE',  ( -37.50000000000000000, 37.50000000000000000, 4.000000000000000000 ) ) ;
#91 = VERTEX_POINT ( 'NONE', #36 ) ;
#92 = DIRECTION ( 'NONE',  ( 0.0000000000000000000, -1.000000000000000000, 0.0000000000000000000 ) ) ;
#93 = CARTESIAN_POINT ( 'NONE',  ( -37.50000000000000000, 37.50000000000000000, 0.0000000000000000000 ) ) ;
#94 = PERSON_AND_ORGANIZATION ( #112, #125 ) ;
#95 = EDGE_LOOP ( 'NONE', ( #236, #23, #187, #104 ) ) ;
#96 = CC_DESIGN_PERSON_AND_ORGANIZATION_ASSIGNMENT ( #52, #15, ( #121 ) ) ;
#97 = CARTESIAN_POINT ( 'NONE',  ( -37.50000000000000000, -37.50000000000000000, 0.0000000000000000000 ) ) ;
#98 = DATE_AND_TIME ( #10, #123 ) ;
#99 = APPROVAL_ROLE ( '' ) ;
#100 = LINE ( 'NONE', #185, #53 ) ;
#101 = LINE ( 'NONE', #138, #228 ) ;
#102 = ORIENTED_EDGE ( 'NONE', *, *, #145, .T. ) ;
#103 = LOCAL_TIME ( 10, 19, 57.00000000000000000, #235 ) ;
#104 = ORIENTED_EDGE ( 'NONE', *, *, #160, .T. ) ;
#105 = DIRECTION ( 'NONE',  ( -0.0000000000000000000, -0.0000000000000000000, -1.000000000000000000 ) ) ;
#106 = DIRECTION ( 'NONE',  ( -0.0000000000000000000, 1.000000000000000000, -0.0000000000000000000 ) ) ;
#107 = ORIENTED_EDGE ( 'NONE', *, *, #211, .F. ) ;
#108 = AXIS2_PLACEMENT_3D ( 'NONE', #175, #214, #192 ) ;
#109 = APPLICATION_CONTEXT ( 'configuration controlled 3d designs of mechanical parts and assemblies' ) ;
#110 = EDGE_CURVE ( 'NONE', #227, #91, #64, .T. ) ;
#111 = ORIENTED_EDGE ( 'NONE', *, *, #160, .F. ) ;
#112 = PERSON ( 'UNSPECIFIED', 'UNSPECIFIED', 'UNSPECIFIED', ('UNSPECIFIED'), ('UNSPECIFIED'), ('UNSPECIFIED') ) ;
#113 = CARTESIAN_POINT ( 'NONE',  ( -37.50000000000000000, 37.50000000000000000, 4.000000000000000000 ) ) ;
#114 = CALENDAR_DATE ( 2017, 6, 9 ) ;
#115 = CARTESIAN_POINT ( 'NONE',  ( -37.50000000000000000, -37.50000000000000000, 4.000000000000000000 ) ) ;
#116 = CARTESIAN_POINT ( 'NONE',  ( -37.50000000000000000, 37.50000000000000000, 0.0000000000000000000 ) ) ;
#117 = EDGE_CURVE ( 'NONE', #158, #179, #100, .T. ) ;
#118 = EDGE_CURVE ( 'NONE', #91, #158, #197, .T. ) ;
#119 = ORIENTED_EDGE ( 'NONE', *, *, #224, .F. ) ;
#120 = APPROVAL_ROLE ( '' ) ;
#121 = PRODUCT_DEFINITION_FORMATION_WITH_SPECIFIED_SOURCE ( 'ANY', '', #232, .NOT_KNOWN. ) ;
#122 = ADVANCED_FACE ( 'NONE', ( #209 ), #18, .F. ) ;
#123 = LOCAL_TIME ( 10, 19, 57.00000000000000000, #47 ) ;
#124 = CC_DESIGN_DATE_AND_TIME_ASSIGNMENT ( #5, #30, ( #48 ) ) ;
#125 = ORGANIZATION ( 'UNSPECIFIED', 'UNSPECIFIED', '' ) ;
#126 = EDGE_LOOP ( 'NONE', ( #134, #111, #107, #87 ) ) ;
#127 = AXIS2_PLACEMENT_3D ( 'NONE', #115, #9, #159 ) ;
#128 = DIRECTION ( 'NONE',  ( -1.000000000000000000, -0.0000000000000000000, -0.0000000000000000000 ) ) ;
#129 = CARTESIAN_POINT ( 'NONE',  ( -37.50000000000000000, 37.50000000000000000, 4.000000000000000000 ) ) ;
#130 = APPROVAL ( #27, 'UNSPECIFIED' ) ;
#131 = EDGE_CURVE ( 'NONE', #59, #158, #33, .T. ) ;
#132 = CARTESIAN_POINT ( 'NONE',  ( 37.50000000000000000, 37.50000000000000000, 0.0000000000000000000 ) ) ;
#133 = LINE ( 'NONE', #46, #86 ) ;
#134 = ORIENTED_EDGE ( 'NONE', *, *, #224, .T. ) ;
#135 = EDGE_CURVE ( 'NONE', #227, #59, #57, .T. ) ;
#136 = VECTOR ( 'NONE', #229, 1000.000000000000000 ) ;
#137 = DIRECTION ( 'NONE',  ( 0.0000000000000000000, 0.0000000000000000000, 1.000000000000000000 ) ) ;
#138 = CARTESIAN_POINT ( 'NONE',  ( -37.50000000000000000, -37.50000000000000000, 4.000000000000000000 ) ) ;
#139 = APPROVAL_STATUS ( 'not_yet_approved' ) ;
#140 = ADVANCED_FACE ( 'NONE', ( #11 ), #45, .T. ) ;
#141 = FACE_OUTER_BOUND ( 'NONE', #126, .T. ) ;
#142 = ADVANCED_FACE ( 'NONE', ( #144 ), #28, .F. ) ;
#143 = PERSON_AND_ORGANIZATION ( #112, #125 ) ;
#144 = FACE_OUTER_BOUND ( 'NONE', #203, .T. ) ;
#145 = EDGE_CURVE ( 'NONE', #61, #227, #73, .T. ) ;
#146 = VECTOR ( 'NONE', #105, 1000.000000000000000 ) ;
#147 = DIRECTION ( 'NONE',  ( 0.0000000000000000000, -1.000000000000000000, 0.0000000000000000000 ) ) ;
#148 = CARTESIAN_POINT ( 'NONE',  ( 37.50000000000000000, 37.50000000000000000, 4.000000000000000000 ) ) ;
#149 = CARTESIAN_POINT ( 'NONE',  ( 37.50000000000000000, -37.50000000000000000, 4.000000000000000000 ) ) ;
#150 = DATE_AND_TIME ( #56, #199 ) ;
#151 = LINE ( 'NONE', #116, #163 ) ;
#152 = ORIENTED_EDGE ( 'NONE', *, *, #66, .F. ) ;
#153 = PLANE ( 'NONE',  #108 ) ;
#154 = VERTEX_POINT ( 'NONE', #113 ) ;
#155 = ADVANCED_BREP_SHAPE_REPRESENTATION ( 'Web Model 62607_37072', ( #85, #234 ), #71 ) ;
#156 = CARTESIAN_POINT ( 'NONE',  ( -37.50000000000000000, 37.50000000000000000, 4.000000000000000000 ) ) ;
#157 =( NAMED_UNIT ( * ) SI_UNIT ( $, .STERADIAN. ) SOLID_ANGLE_UNIT ( ) );
#158 = VERTEX_POINT ( 'NONE', #132 ) ;
#159 = DIRECTION ( 'NONE',  ( 1.000000000000000000, 0.0000000000000000000, 0.0000000000000000000 ) ) ;
#160 = EDGE_CURVE ( 'NONE', #61, #220, #101, .T. ) ;
#161 = DIRECTION ( 'NONE',  ( 1.000000000000000000, 0.0000000000000000000, 0.0000000000000000000 ) ) ;
#162 = APPROVAL_STATUS ( 'not_yet_approved' ) ;
#163 = VECTOR ( 'NONE', #92, 1000.000000000000000 ) ;
#164 = FACE_OUTER_BOUND ( 'NONE', #95, .T. ) ;
#165 = CLOSED_SHELL ( 'NONE', ( #29, #82, #142, #122, #140, #216 ) ) ;
#166 = APPROVAL_PERSON_ORGANIZATION ( #143, #83, #99 ) ;
#167 = FACE_OUTER_BOUND ( 'NONE', #6, .T. ) ;
#168 = CARTESIAN_POINT ( 'NONE',  ( -37.50000000000000000, -37.50000000000000000, 4.000000000000000000 ) ) ;
#169 = PLANE ( 'NONE',  #177 ) ;
#170 = EDGE_CURVE ( 'NONE', #220, #91, #133, .T. ) ;
#171 = CARTESIAN_POINT ( 'NONE',  ( 0.0000000000000000000, 0.0000000000000000000, 0.0000000000000000000 ) ) ;
#172 = CALENDAR_DATE ( 2017, 6, 9 ) ;
#173 = ORIENTED_EDGE ( 'NONE', *, *, #118, .F. ) ;
#174 = APPROVAL_DATE_TIME ( #186, #83 ) ;
#175 = CARTESIAN_POINT ( 'NONE',  ( -37.50000000000000000, -37.50000000000000000, 0.0000000000000000000 ) ) ;
#176 = APPROVAL_ROLE ( '' ) ;
#177 = AXIS2_PLACEMENT_3D ( 'NONE', #207, #89, #183 ) ;
#178 = CARTESIAN_POINT ( 'NONE',  ( 37.50000000000000000, -37.50000000000000000, 4.000000000000000000 ) ) ;
#179 = VERTEX_POINT ( 'NONE', #93 ) ;
#180 = PERSON_AND_ORGANIZATION_ROLE ( 'creator' ) ;
#181 = CC_DESIGN_APPROVAL ( #130, ( #35 ) ) ;
#182 = LOCAL_TIME ( 10, 19, 57.00000000000000000, #26 ) ;
#183 = DIRECTION ( 'NONE',  ( 0.0000000000000000000, -0.0000000000000000000, 1.000000000000000000 ) ) ;
#184 = DIRECTION ( 'NONE',  ( -0.0000000000000000000, -0.0000000000000000000, -1.000000000000000000 ) ) ;
#185 = CARTESIAN_POINT ( 'NONE',  ( -37.50000000000000000, 37.50000000000000000, 0.0000000000000000000 ) ) ;
#186 = DATE_AND_TIME ( #172, #103 ) ;
#187 = ORIENTED_EDGE ( 'NONE', *, *, #145, .F. ) ;
#188 = CC_DESIGN_DATE_AND_TIME_ASSIGNMENT ( #98, #213, ( #35 ) ) ;
#189 = CC_DESIGN_APPROVAL ( #83, ( #48 ) ) ;
#190 = ORIENTED_EDGE ( 'NONE', *, *, #131, .F. ) ;
#191 =( NAMED_UNIT ( * ) PLANE_ANGLE_UNIT ( ) SI_UNIT ( $, .RADIAN. ) );
#192 = DIRECTION ( 'NONE',  ( 1.000000000000000000, 0.0000000000000000000, 0.0000000000000000000 ) ) ;
#193 = CARTESIAN_POINT ( 'NONE',  ( -37.50000000000000000, -37.50000000000000000, 4.000000000000000000 ) ) ;
#194 = LINE ( 'NONE', #129, #146 ) ;
#195 = AXIS2_PLACEMENT_3D ( 'NONE', #90, #1, #72 ) ;
#196 = MECHANICAL_CONTEXT ( 'NONE', #109, 'mechanical' ) ;
#197 = LINE ( 'NONE', #204, #88 ) ;
#198 = PERSON_AND_ORGANIZATION_ROLE ( 'classification_officer' ) ;
#199 = LOCAL_TIME ( 10, 19, 57.00000000000000000, #219 ) ;
#200 = VECTOR ( 'NONE', #106, 1000.000000000000000 ) ;
#201 = LINE ( 'NONE', #38, #3 ) ;
#202 = APPROVAL_PERSON_ORGANIZATION ( #70, #217, #120 ) ;
#203 = EDGE_LOOP ( 'NONE', ( #80, #190, #42, #237 ) ) ;
#204 = CARTESIAN_POINT ( 'NONE',  ( 37.50000000000000000, 37.50000000000000000, 0.0000000000000000000 ) ) ;
#205 = PERSON_AND_ORGANIZATION ( #112, #125 ) ;
#206 = APPROVAL_PERSON_ORGANIZATION ( #16, #130, #176 ) ;
#207 = CARTESIAN_POINT ( 'NONE',  ( -37.50000000000000000, -37.50000000000000000, 4.000000000000000000 ) ) ;
#208 = APPROVAL_DATE_TIME ( #150, #217 ) ;
#209 = FACE_OUTER_BOUND ( 'NONE', #67, .T. ) ;
#210 = PERSON_AND_ORGANIZATION ( #112, #125 ) ;
#211 = EDGE_CURVE ( 'NONE', #154, #61, #84, .T. ) ;
#212 = ORIENTED_EDGE ( 'NONE', *, *, #77, .F. ) ;
#213 = DATE_TIME_ROLE ( 'creation_date' ) ;
#214 = DIRECTION ( 'NONE',  ( -0.0000000000000000000, 0.0000000000000000000, 1.000000000000000000 ) ) ;
#215 = ORIENTED_EDGE ( 'NONE', *, *, #131, .T. ) ;
#216 = ADVANCED_FACE ( 'NONE', ( #167 ), #153, .F. ) ;
#217 = APPROVAL ( #139, 'UNSPECIFIED' ) ;
#218 = PRODUCT_RELATED_PRODUCT_CATEGORY ( 'detail', '', ( #232 ) ) ;
#219 = COORDINATED_UNIVERSAL_TIME_OFFSET ( 5, 0, .BEHIND. ) ;
#220 = VERTEX_POINT ( 'NONE', #97 ) ;
#221 = DIRECTION ( 'NONE',  ( -0.0000000000000000000, 1.000000000000000000, -0.0000000000000000000 ) ) ;
#222 = CARTESIAN_POINT ( 'NONE',  ( 37.50000000000000000, 37.50000000000000000, 4.000000000000000000 ) ) ;
#223 = CC_DESIGN_PERSON_AND_ORGANIZATION_ASSIGNMENT ( #94, #198, ( #48 ) ) ;
#224 = EDGE_CURVE ( 'NONE', #179, #220, #151, .T. ) ;
#225 = APPLICATION_PROTOCOL_DEFINITION ( 'international standard', 'config_control_design', 1994, #25 ) ;
#226 = VECTOR ( 'NONE', #184, 1000.000000000000000 ) ;
#227 = VERTEX_POINT ( 'NONE', #178 ) ;
#228 = VECTOR ( 'NONE', #8, 1000.000000000000000 ) ;
#229 = DIRECTION ( 'NONE',  ( 1.000000000000000000, 0.0000000000000000000, 0.0000000000000000000 ) ) ;
#230 = DIRECTION ( 'NONE',  ( -1.000000000000000000, 0.0000000000000000000, 0.0000000000000000000 ) ) ;
#231 = AXIS2_PLACEMENT_3D ( 'NONE', #19, #147, #69 ) ;
#232 = PRODUCT ( 'Web Model 62607_37072', 'Web Model 62607_37072', '', ( #196 ) ) ;
#233 = PERSON_AND_ORGANIZATION ( #112, #125 ) ;
#234 = AXIS2_PLACEMENT_3D ( 'NONE', #171, #137, #76 ) ;
#235 = COORDINATED_UNIVERSAL_TIME_OFFSET ( 5, 0, .BEHIND. ) ;
#236 = ORIENTED_EDGE ( 'NONE', *, *, #170, .T. ) ;
#237 = ORIENTED_EDGE ( 'NONE', *, *, #110, .T. ) ;
ENDSEC;
END-ISO-10303-21;
