ISO-10303-21;
HEADER;
FILE_DESCRIPTION (( 'STEP AP203' ),
    '1' );
FILE_NAME ('Web Model 45254_45254.step',
    '2017-04-10T16:33:51',
    ( '' ),
    ( '' ),
    'SwSTEP 2.0',
    'SolidWorks 2016',
    '' );
FILE_SCHEMA (( 'CONFIG_CONTROL_DESIGN' ));
ENDSEC;

DATA;
#1 = ADVANCED_FACE ( 'NONE', ( #89 ), #60, .T. ) ;
#2 = DATE_AND_TIME ( #77, #10 ) ;
#3 = PERSON_AND_ORGANIZATION ( #51, #56 ) ;
#4 = CC_DESIGN_PERSON_AND_ORGANIZATION_ASSIGNMENT ( #127, #38, ( #74 ) ) ;
#5 = CARTESIAN_POINT ( 'NONE',  ( 0.0000000000000000000, 0.0000000000000000000, 2.000000000000000000 ) ) ;
#6 = EDGE_LOOP ( 'NONE', ( #168, #22 ) ) ;
#7 = LOCAL_TIME ( 12, 33, 51.00000000000000000, #166 ) ;
#8 = DIRECTION ( 'NONE',  ( 0.0000000000000000000, 0.0000000000000000000, 1.000000000000000000 ) ) ;
#9 = PERSON_AND_ORGANIZATION_ROLE ( 'creator' ) ;
#10 = LOCAL_TIME ( 12, 33, 51.00000000000000000, #108 ) ;
#11 = PRODUCT_DEFINITION ( 'UNKNOWN', '', #57, #171 ) ;
#12 = ORIENTED_EDGE ( 'NONE', *, *, #33, .T. ) ;
#13 = LOCAL_TIME ( 12, 33, 51.00000000000000000, #163 ) ;
#14 = FACE_OUTER_BOUND ( 'NONE', #27, .T. ) ;
#15 = EDGE_LOOP ( 'NONE', ( #172, #138 ) ) ;
#16 = CALENDAR_DATE ( 2017, 10, 4 ) ;
#17 = PERSON_AND_ORGANIZATION ( #51, #56 ) ;
#18 = DIRECTION ( 'NONE',  ( 0.0000000000000000000, 0.0000000000000000000, 1.000000000000000000 ) ) ;
#19 = DIRECTION ( 'NONE',  ( 1.000000000000000000, 0.0000000000000000000, 0.0000000000000000000 ) ) ;
#20 = APPROVAL ( #148, 'UNSPECIFIED' ) ;
#21 = CARTESIAN_POINT ( 'NONE',  ( 0.0000000000000000000, 0.0000000000000000000, 0.0000000000000000000 ) ) ;
#22 = ORIENTED_EDGE ( 'NONE', *, *, #155, .T. ) ;
#23 = PLANE ( 'NONE',  #112 ) ;
#24 = DIRECTION ( 'NONE',  ( 1.000000000000000000, 0.0000000000000000000, 0.0000000000000000000 ) ) ;
#25 = DIRECTION ( 'NONE',  ( 0.0000000000000000000, 0.0000000000000000000, 1.000000000000000000 ) ) ;
#26 = CYLINDRICAL_SURFACE ( 'NONE', #103, 15.00000000000000000 ) ;
#27 = EDGE_LOOP ( 'NONE', ( #63, #128, #114, #110 ) ) ;
#28 = PERSON_AND_ORGANIZATION ( #51, #56 ) ;
#29 = DATE_AND_TIME ( #80, #13 ) ;
#30 = VECTOR ( 'NONE', #131, 1000.000000000000000 ) ;
#31 = CC_DESIGN_APPROVAL ( #20, ( #11 ) ) ;
#32 = UNCERTAINTY_MEASURE_WITH_UNIT (LENGTH_MEASURE( 1.000000000000000100E-005 ), #116, 'distance_accuracy_value', 'NONE');
#33 = EDGE_CURVE ( 'NONE', #98, #68, #122, .T. ) ;
#34 = ADVANCED_FACE ( 'NONE', ( #91 ), #152, .T. ) ;
#35 = CARTESIAN_POINT ( 'NONE',  ( 15.00000000000000000, 1.836970198721029600E-015, 0.0000000000000000000 ) ) ;
#36 = DIRECTION ( 'NONE',  ( -0.0000000000000000000, -0.0000000000000000000, -1.000000000000000000 ) ) ;
#37 = DIRECTION ( 'NONE',  ( 1.000000000000000000, 0.0000000000000000000, 0.0000000000000000000 ) ) ;
#38 = PERSON_AND_ORGANIZATION_ROLE ( 'design_owner' ) ;
#39 = PERSON_AND_ORGANIZATION_ROLE ( 'classification_officer' ) ;
#40 = CC_DESIGN_PERSON_AND_ORGANIZATION_ASSIGNMENT ( #28, #161, ( #11 ) ) ;
#41 = VERTEX_POINT ( 'NONE', #130 ) ;
#42 = DATE_AND_TIME ( #156, #83 ) ;
#43 = CARTESIAN_POINT ( 'NONE',  ( 0.0000000000000000000, 0.0000000000000000000, 2.000000000000000000 ) ) ;
#44 = PERSON_AND_ORGANIZATION ( #51, #56 ) ;
#45 = CARTESIAN_POINT ( 'NONE',  ( 15.00000000000000000, 1.836970198721029600E-015, 2.000000000000000000 ) ) ;
#46 = CARTESIAN_POINT ( 'NONE',  ( 0.0000000000000000000, 0.0000000000000000000, 2.000000000000000000 ) ) ;
#47 = CC_DESIGN_DATE_AND_TIME_ASSIGNMENT ( #29, #73, ( #11 ) ) ;
#48 = PERSON_AND_ORGANIZATION ( #51, #56 ) ;
#49 = AXIS2_PLACEMENT_3D ( 'NONE', #96, #18, #115 ) ;
#50 = APPLICATION_PROTOCOL_DEFINITION ( 'international standard', 'config_control_design', 1994, #134 ) ;
#51 = PERSON ( 'UNSPECIFIED', 'UNSPECIFIED', 'UNSPECIFIED', ('UNSPECIFIED'), ('UNSPECIFIED'), ('UNSPECIFIED') ) ;
#52 = APPROVAL_STATUS ( 'not_yet_approved' ) ;
#53 = DIRECTION ( 'NONE',  ( -1.000000000000000000, 0.0000000000000000000, 0.0000000000000000000 ) ) ;
#54 = VERTEX_POINT ( 'NONE', #45 ) ;
#55 = DATE_AND_TIME ( #120, #7 ) ;
#56 = ORGANIZATION ( 'UNSPECIFIED', 'UNSPECIFIED', '' ) ;
#57 = PRODUCT_DEFINITION_FORMATION_WITH_SPECIFIED_SOURCE ( 'ANY', '', #74, .NOT_KNOWN. ) ;
#58 = APPROVAL_PERSON_ORGANIZATION ( #44, #133, #149 ) ;
#59 = AXIS2_PLACEMENT_3D ( 'NONE', #43, #95, #85 ) ;
#60 = PLANE ( 'NONE',  #59 ) ;
#61 = EDGE_CURVE ( 'NONE', #41, #54, #144, .T. ) ;
#62 = APPROVAL_ROLE ( '' ) ;
#63 = ORIENTED_EDGE ( 'NONE', *, *, #155, .F. ) ;
#64 = APPROVAL ( #175, 'UNSPECIFIED' ) ;
#65 = DIRECTION ( 'NONE',  ( -0.0000000000000000000, -0.0000000000000000000, -1.000000000000000000 ) ) ;
#66 = AXIS2_PLACEMENT_3D ( 'NONE', #121, #151, #162 ) ;
#67 = DIRECTION ( 'NONE',  ( -1.000000000000000000, 0.0000000000000000000, 0.0000000000000000000 ) ) ;
#68 = VERTEX_POINT ( 'NONE', #35 ) ;
#69 = PERSON_AND_ORGANIZATION ( #51, #56 ) ;
#70 = DIRECTION ( 'NONE',  ( 0.0000000000000000000, 0.0000000000000000000, 1.000000000000000000 ) ) ;
#71 = CC_DESIGN_APPROVAL ( #64, ( #57 ) ) ;
#72 = AXIS2_PLACEMENT_3D ( 'NONE', #86, #97, #19 ) ;
#73 = DATE_TIME_ROLE ( 'creation_date' ) ;
#74 = PRODUCT ( 'Web Model 45254_45254', 'Web Model 45254_45254', '', ( #118 ) ) ;
#75 = CARTESIAN_POINT ( 'NONE',  ( 0.0000000000000000000, 0.0000000000000000000, 0.0000000000000000000 ) ) ;
#76 = LOCAL_TIME ( 12, 33, 51.00000000000000000, #139 ) ;
#77 = CALENDAR_DATE ( 2017, 10, 4 ) ;
#78 = FACE_OUTER_BOUND ( 'NONE', #15, .T. ) ;
#79 = DATE_AND_TIME ( #16, #76 ) ;
#80 = CALENDAR_DATE ( 2017, 10, 4 ) ;
#81 = CIRCLE ( 'NONE', #66, 15.00000000000000000 ) ;
#82 = CC_DESIGN_PERSON_AND_ORGANIZATION_ASSIGNMENT ( #3, #9, ( #57 ) ) ;
#83 = LOCAL_TIME ( 12, 33, 51.00000000000000000, #129 ) ;
#84 = AXIS2_PLACEMENT_3D ( 'NONE', #5, #65, #67 ) ;
#85 = DIRECTION ( 'NONE',  ( 1.000000000000000000, 0.0000000000000000000, -0.0000000000000000000 ) ) ;
#86 = CARTESIAN_POINT ( 'NONE',  ( 0.0000000000000000000, 0.0000000000000000000, 2.000000000000000000 ) ) ;
#87 = SHAPE_DEFINITION_REPRESENTATION ( #105, #137 ) ;
#88 = APPROVAL_ROLE ( '' ) ;
#89 = FACE_OUTER_BOUND ( 'NONE', #6, .T. ) ;
#90 = APPROVAL_DATE_TIME ( #55, #20 ) ;
#91 = FACE_OUTER_BOUND ( 'NONE', #159, .T. ) ;
#92 = CC_DESIGN_PERSON_AND_ORGANIZATION_ASSIGNMENT ( #142, #104, ( #57 ) ) ;
#93 =( NAMED_UNIT ( * ) PLANE_ANGLE_UNIT ( ) SI_UNIT ( $, .RADIAN. ) );
#94 = APPROVAL_PERSON_ORGANIZATION ( #17, #64, #88 ) ;
#95 = DIRECTION ( 'NONE',  ( 0.0000000000000000000, 0.0000000000000000000, 1.000000000000000000 ) ) ;
#96 = CARTESIAN_POINT ( 'NONE',  ( 0.0000000000000000000, 0.0000000000000000000, 0.0000000000000000000 ) ) ;
#97 = DIRECTION ( 'NONE',  ( 0.0000000000000000000, 0.0000000000000000000, 1.000000000000000000 ) ) ;
#98 = VERTEX_POINT ( 'NONE', #146 ) ;
#99 = MANIFOLD_SOLID_BREP ( 'Extrude1', #169 ) ;
#100 = CARTESIAN_POINT ( 'NONE',  ( 0.0000000000000000000, 0.0000000000000000000, 0.0000000000000000000 ) ) ;
#101 = SECURITY_CLASSIFICATION ( '', '', #119 ) ;
#102 = APPLICATION_CONTEXT ( 'configuration controlled 3d designs of mechanical parts and assemblies' ) ;
#103 = AXIS2_PLACEMENT_3D ( 'NONE', #46, #170, #53 ) ;
#104 = PERSON_AND_ORGANIZATION_ROLE ( 'design_supplier' ) ;
#105 = PRODUCT_DEFINITION_SHAPE ( 'NONE', 'NONE',  #11 ) ;
#106 = EDGE_CURVE ( 'NONE', #54, #68, #147, .T. ) ;
#107 = DIRECTION ( 'NONE',  ( 1.000000000000000000, 0.0000000000000000000, -0.0000000000000000000 ) ) ;
#108 = COORDINATED_UNIVERSAL_TIME_OFFSET ( 5, 0, .BEHIND. ) ;
#109 = CC_DESIGN_PERSON_AND_ORGANIZATION_ASSIGNMENT ( #69, #39, ( #101 ) ) ;
#110 = ORIENTED_EDGE ( 'NONE', *, *, #140, .F. ) ;
#111 = APPROVAL_DATE_TIME ( #42, #133 ) ;
#112 = AXIS2_PLACEMENT_3D ( 'NONE', #75, #8, #107 ) ;
#113 = CARTESIAN_POINT ( 'NONE',  ( 15.00000000000000000, 1.836970198721029600E-015, 2.000000000000000000 ) ) ;
#114 = ORIENTED_EDGE ( 'NONE', *, *, #167, .T. ) ;
#115 = DIRECTION ( 'NONE',  ( 1.000000000000000000, 0.0000000000000000000, 0.0000000000000000000 ) ) ;
#116 =( LENGTH_UNIT ( ) NAMED_UNIT ( * ) SI_UNIT ( .MILLI., .METRE. ) );
#117 = ORIENTED_EDGE ( 'NONE', *, *, #140, .T. ) ;
#118 = MECHANICAL_CONTEXT ( 'NONE', #102, 'mechanical' ) ;
#119 = SECURITY_CLASSIFICATION_LEVEL ( 'unclassified' ) ;
#120 = CALENDAR_DATE ( 2017, 10, 4 ) ;
#121 = CARTESIAN_POINT ( 'NONE',  ( 0.0000000000000000000, 0.0000000000000000000, 2.000000000000000000 ) ) ;
#122 = CIRCLE ( 'NONE', #49, 15.00000000000000000 ) ;
#123 = CC_DESIGN_DATE_AND_TIME_ASSIGNMENT ( #2, #136, ( #101 ) ) ;
#124 = AXIS2_PLACEMENT_3D ( 'NONE', #21, #70, #37 ) ;
#125 = CIRCLE ( 'NONE', #124, 15.00000000000000000 ) ;
#126 = APPROVAL_DATE_TIME ( #79, #64 ) ;
#127 = PERSON_AND_ORGANIZATION ( #51, #56 ) ;
#128 = ORIENTED_EDGE ( 'NONE', *, *, #106, .T. ) ;
#129 = COORDINATED_UNIVERSAL_TIME_OFFSET ( 5, 0, .BEHIND. ) ;
#130 = CARTESIAN_POINT ( 'NONE',  ( -15.00000000000000000, 0.0000000000000000000, 2.000000000000000000 ) ) ;
#131 = DIRECTION ( 'NONE',  ( -0.0000000000000000000, -0.0000000000000000000, -1.000000000000000000 ) ) ;
#132 = ADVANCED_FACE ( 'NONE', ( #14 ), #26, .T. ) ;
#133 = APPROVAL ( #52, 'UNSPECIFIED' ) ;
#134 = APPLICATION_CONTEXT ( 'configuration controlled 3d designs of mechanical parts and assemblies' ) ;
#135 =( GEOMETRIC_REPRESENTATION_CONTEXT ( 3 ) GLOBAL_UNCERTAINTY_ASSIGNED_CONTEXT ( ( #32 ) ) GLOBAL_UNIT_ASSIGNED_CONTEXT ( ( #116, #93, #164 ) ) REPRESENTATION_CONTEXT ( 'NONE', 'WORKASPACE' ) );
#136 = DATE_TIME_ROLE ( 'classification_date' ) ;
#137 = ADVANCED_BREP_SHAPE_REPRESENTATION ( 'Web Model 45254_45254', ( #99, #173 ), #135 ) ;
#138 = ORIENTED_EDGE ( 'NONE', *, *, #167, .F. ) ;
#139 = COORDINATED_UNIVERSAL_TIME_OFFSET ( 5, 0, .BEHIND. ) ;
#140 = EDGE_CURVE ( 'NONE', #41, #98, #145, .T. ) ;
#141 = ORIENTED_EDGE ( 'NONE', *, *, #106, .F. ) ;
#142 = PERSON_AND_ORGANIZATION ( #51, #56 ) ;
#143 = CC_DESIGN_APPROVAL ( #133, ( #101 ) ) ;
#144 = CIRCLE ( 'NONE', #72, 15.00000000000000000 ) ;
#145 = LINE ( 'NONE', #158, #157 ) ;
#146 = CARTESIAN_POINT ( 'NONE',  ( -15.00000000000000000, 0.0000000000000000000, 0.0000000000000000000 ) ) ;
#147 = LINE ( 'NONE', #113, #30 ) ;
#148 = APPROVAL_STATUS ( 'not_yet_approved' ) ;
#149 = APPROVAL_ROLE ( '' ) ;
#150 = ADVANCED_FACE ( 'NONE', ( #78 ), #23, .F. ) ;
#151 = DIRECTION ( 'NONE',  ( 0.0000000000000000000, 0.0000000000000000000, 1.000000000000000000 ) ) ;
#152 = CYLINDRICAL_SURFACE ( 'NONE', #84, 15.00000000000000000 ) ;
#153 = CC_DESIGN_SECURITY_CLASSIFICATION ( #101, ( #57 ) ) ;
#154 = APPROVAL_PERSON_ORGANIZATION ( #48, #20, #62 ) ;
#155 = EDGE_CURVE ( 'NONE', #54, #41, #81, .T. ) ;
#156 = CALENDAR_DATE ( 2017, 10, 4 ) ;
#157 = VECTOR ( 'NONE', #36, 1000.000000000000000 ) ;
#158 = CARTESIAN_POINT ( 'NONE',  ( -15.00000000000000000, 0.0000000000000000000, 2.000000000000000000 ) ) ;
#159 = EDGE_LOOP ( 'NONE', ( #141, #165, #117, #12 ) ) ;
#160 = PRODUCT_RELATED_PRODUCT_CATEGORY ( 'detail', '', ( #74 ) ) ;
#161 = PERSON_AND_ORGANIZATION_ROLE ( 'creator' ) ;
#162 = DIRECTION ( 'NONE',  ( 1.000000000000000000, 0.0000000000000000000, 0.0000000000000000000 ) ) ;
#163 = COORDINATED_UNIVERSAL_TIME_OFFSET ( 5, 0, .BEHIND. ) ;
#164 =( NAMED_UNIT ( * ) SI_UNIT ( $, .STERADIAN. ) SOLID_ANGLE_UNIT ( ) );
#165 = ORIENTED_EDGE ( 'NONE', *, *, #61, .F. ) ;
#166 = COORDINATED_UNIVERSAL_TIME_OFFSET ( 5, 0, .BEHIND. ) ;
#167 = EDGE_CURVE ( 'NONE', #68, #98, #125, .T. ) ;
#168 = ORIENTED_EDGE ( 'NONE', *, *, #61, .T. ) ;
#169 = CLOSED_SHELL ( 'NONE', ( #132, #34, #1, #150 ) ) ;
#170 = DIRECTION ( 'NONE',  ( -0.0000000000000000000, -0.0000000000000000000, -1.000000000000000000 ) ) ;
#171 = DESIGN_CONTEXT ( 'detailed design', #134, 'design' ) ;
#172 = ORIENTED_EDGE ( 'NONE', *, *, #33, .F. ) ;
#173 = AXIS2_PLACEMENT_3D ( 'NONE', #100, #25, #24 ) ;
#174 = APPLICATION_PROTOCOL_DEFINITION ( 'international standard', 'config_control_design', 1994, #102 ) ;
#175 = APPROVAL_STATUS ( 'not_yet_approved' ) ;
ENDSEC;
END-ISO-10303-21;
