ISO-10303-21;
HEADER;
FILE_DESCRIPTION (( 'STEP AP203' ),
    '1' );
FILE_NAME ('Web Model 49121_13309.step',
    '2020-11-03T21:45:23',
    ( '' ),
    ( '' ),
    'SwSTEP 2.0',
    'SolidWorks 2018',
    '' );
FILE_SCHEMA (( 'CONFIG_CONTROL_DESIGN' ));
ENDSEC;

DATA;
#1 = DIRECTION ( 'NONE',  ( 0.0000000000000000000, 0.0000000000000000000, 1.000000000000000000 ) ) ;
#2 = PRODUCT ( 'Web Model 49121_13309', 'Web Model 49121_13309', '', ( #108 ) ) ;
#3 = APPROVAL_STATUS ( 'not_yet_approved' ) ;
#4 = PERSON_AND_ORGANIZATION_ROLE ( 'design_supplier' ) ;
#5 = APPROVAL_PERSON_ORGANIZATION ( #97, #128, #30 ) ;
#6 = CIRCLE ( 'NONE', #66, 4.500000000000000000 ) ;
#7 = CALENDAR_DATE ( 2020, 3, 11 ) ;
#8 = ORIENTED_EDGE ( 'NONE', *, *, #78, .F. ) ;
#9 = SECURITY_CLASSIFICATION ( '', '', #52 ) ;
#10 = VECTOR ( 'NONE', #86, 1000.000000000000000 ) ;
#11 = CARTESIAN_POINT ( 'NONE',  ( 0.0000000000000000000, 0.0000000000000000000, 0.0000000000000000000 ) ) ;
#12 = CARTESIAN_POINT ( 'NONE',  ( 0.0000000000000000000, 0.0000000000000000000, -2.000000000000000000 ) ) ;
#13 = DATE_AND_TIME ( #138, #94 ) ;
#14 = DIRECTION ( 'NONE',  ( 1.000000000000000000, 0.0000000000000000000, -0.0000000000000000000 ) ) ;
#15 = EDGE_CURVE ( 'NONE', #89, #152, #18, .T. ) ;
#16 = AXIS2_PLACEMENT_3D ( 'NONE', #19, #53, #104 ) ;
#17 = LOCAL_TIME ( 16, 45, 23.00000000000000000, #73 ) ;
#18 = CIRCLE ( 'NONE', #29, 4.500000000000000000 ) ;
#19 = CARTESIAN_POINT ( 'NONE',  ( 0.0000000000000000000, 0.0000000000000000000, 0.0000000000000000000 ) ) ;
#20 = ORIENTED_EDGE ( 'NONE', *, *, #131, .T. ) ;
#21 = EDGE_CURVE ( 'NONE', #71, #173, #6, .T. ) ;
#22 = COORDINATED_UNIVERSAL_TIME_OFFSET ( 5, 0, .BEHIND. ) ;
#23 = ADVANCED_FACE ( 'NONE', ( #76 ), #96, .F. ) ;
#24 = DIRECTION ( 'NONE',  ( 0.0000000000000000000, 0.0000000000000000000, 1.000000000000000000 ) ) ;
#25 = PLANE ( 'NONE',  #155 ) ;
#26 = DIRECTION ( 'NONE',  ( 1.000000000000000000, 0.0000000000000000000, 0.0000000000000000000 ) ) ;
#27 = ORGANIZATION ( 'UNSPECIFIED', 'UNSPECIFIED', '' ) ;
#28 = PERSON_AND_ORGANIZATION_ROLE ( 'creator' ) ;
#29 = AXIS2_PLACEMENT_3D ( 'NONE', #120, #132, #115 ) ;
#30 = APPROVAL_ROLE ( '' ) ;
#31 = PRODUCT_DEFINITION_SHAPE ( 'NONE', 'NONE',  #147 ) ;
#32 = LINE ( 'NONE', #156, #10 ) ;
#33 = CC_DESIGN_DATE_AND_TIME_ASSIGNMENT ( #121, #42, ( #147 ) ) ;
#34 = FACE_OUTER_BOUND ( 'NONE', #83, .T. ) ;
#35 = DIRECTION ( 'NONE',  ( 0.0000000000000000000, 0.0000000000000000000, 1.000000000000000000 ) ) ;
#36 = CARTESIAN_POINT ( 'NONE',  ( -4.500000000000000000, 5.510910596163088569E-16, 0.0000000000000000000 ) ) ;
#37 = LOCAL_TIME ( 16, 45, 23.00000000000000000, #70 ) ;
#38 = EDGE_CURVE ( 'NONE', #152, #89, #106, .T. ) ;
#39 = APPLICATION_PROTOCOL_DEFINITION ( 'international standard', 'config_control_design', 1994, #77 ) ;
#40 = DIRECTION ( 'NONE',  ( 0.0000000000000000000, 0.0000000000000000000, 1.000000000000000000 ) ) ;
#41 = DATE_AND_TIME ( #56, #44 ) ;
#42 = DATE_TIME_ROLE ( 'creation_date' ) ;
#43 = CC_DESIGN_PERSON_AND_ORGANIZATION_ASSIGNMENT ( #139, #28, ( #147 ) ) ;
#44 = LOCAL_TIME ( 16, 45, 23.00000000000000000, #81 ) ;
#45 = PERSON_AND_ORGANIZATION ( #159, #27 ) ;
#46 = COORDINATED_UNIVERSAL_TIME_OFFSET ( 5, 0, .BEHIND. ) ;
#47 = EDGE_LOOP ( 'NONE', ( #58, #57 ) ) ;
#48 = DIRECTION ( 'NONE',  ( 1.000000000000000000, 0.0000000000000000000, 0.0000000000000000000 ) ) ;
#49 = VECTOR ( 'NONE', #24, 1000.000000000000000 ) ;
#50 = LOCAL_TIME ( 16, 45, 23.00000000000000000, #22 ) ;
#51 = ORIENTED_EDGE ( 'NONE', *, *, #15, .F. ) ;
#52 = SECURITY_CLASSIFICATION_LEVEL ( 'unclassified' ) ;
#53 = DIRECTION ( 'NONE',  ( 0.0000000000000000000, 0.0000000000000000000, 1.000000000000000000 ) ) ;
#54 = EDGE_CURVE ( 'NONE', #173, #89, #142, .T. ) ;
#55 = ADVANCED_FACE ( 'NONE', ( #65 ), #109, .T. ) ;
#56 = CALENDAR_DATE ( 2020, 3, 11 ) ;
#57 = ORIENTED_EDGE ( 'NONE', *, *, #21, .F. ) ;
#58 = ORIENTED_EDGE ( 'NONE', *, *, #131, .F. ) ;
#59 = ADVANCED_BREP_SHAPE_REPRESENTATION ( 'Web Model 49121_13309', ( #95, #16 ), #170 ) ;
#60 = CIRCLE ( 'NONE', #148, 4.500000000000000000 ) ;
#61 = APPROVAL ( #79, 'UNSPECIFIED' ) ;
#62 = DIRECTION ( 'NONE',  ( 0.0000000000000000000, 0.0000000000000000000, 1.000000000000000000 ) ) ;
#63 =( LENGTH_UNIT ( ) NAMED_UNIT ( * ) SI_UNIT ( .MILLI., .METRE. ) );
#64 = CC_DESIGN_PERSON_AND_ORGANIZATION_ASSIGNMENT ( #167, #134, ( #2 ) ) ;
#65 = FACE_OUTER_BOUND ( 'NONE', #85, .T. ) ;
#66 = AXIS2_PLACEMENT_3D ( 'NONE', #84, #1, #72 ) ;
#67 = DATE_TIME_ROLE ( 'classification_date' ) ;
#68 = CC_DESIGN_APPROVAL ( #144, ( #9 ) ) ;
#69 = FACE_OUTER_BOUND ( 'NONE', #174, .T. ) ;
#70 = COORDINATED_UNIVERSAL_TIME_OFFSET ( 5, 0, .BEHIND. ) ;
#71 = VERTEX_POINT ( 'NONE', #117 ) ;
#72 = DIRECTION ( 'NONE',  ( 1.000000000000000000, 0.0000000000000000000, 0.0000000000000000000 ) ) ;
#73 = COORDINATED_UNIVERSAL_TIME_OFFSET ( 5, 0, .BEHIND. ) ;
#74 = CARTESIAN_POINT ( 'NONE',  ( 0.0000000000000000000, 0.0000000000000000000, 0.0000000000000000000 ) ) ;
#75 =( NAMED_UNIT ( * ) PLANE_ANGLE_UNIT ( ) SI_UNIT ( $, .RADIAN. ) );
#76 = FACE_OUTER_BOUND ( 'NONE', #47, .T. ) ;
#77 = APPLICATION_CONTEXT ( 'configuration controlled 3d designs of mechanical parts and assemblies' ) ;
#78 = EDGE_CURVE ( 'NONE', #71, #152, #32, .T. ) ;
#79 = APPROVAL_STATUS ( 'not_yet_approved' ) ;
#80 = PERSON_AND_ORGANIZATION ( #159, #27 ) ;
#81 = COORDINATED_UNIVERSAL_TIME_OFFSET ( 5, 0, .BEHIND. ) ;
#82 = UNCERTAINTY_MEASURE_WITH_UNIT (LENGTH_MEASURE( 1.000000000000000082E-05 ), #63, 'distance_accuracy_value', 'NONE');
#83 = EDGE_LOOP ( 'NONE', ( #8, #91, #157, #171 ) ) ;
#84 = CARTESIAN_POINT ( 'NONE',  ( 0.0000000000000000000, 0.0000000000000000000, -2.000000000000000000 ) ) ;
#85 = EDGE_LOOP ( 'NONE', ( #20, #111, #51, #168 ) ) ;
#86 = DIRECTION ( 'NONE',  ( 0.0000000000000000000, 0.0000000000000000000, 1.000000000000000000 ) ) ;
#87 = CALENDAR_DATE ( 2020, 3, 11 ) ;
#88 = APPLICATION_CONTEXT ( 'configuration controlled 3d designs of mechanical parts and assemblies' ) ;
#89 = VERTEX_POINT ( 'NONE', #98 ) ;
#90 = PERSON_AND_ORGANIZATION ( #159, #27 ) ;
#91 = ORIENTED_EDGE ( 'NONE', *, *, #21, .T. ) ;
#92 = APPROVAL_PERSON_ORGANIZATION ( #151, #61, #122 ) ;
#93 = ORIENTED_EDGE ( 'NONE', *, *, #38, .T. ) ;
#94 = LOCAL_TIME ( 16, 45, 23.00000000000000000, #46 ) ;
#95 = MANIFOLD_SOLID_BREP ( 'Extrude1', #129 ) ;
#96 = PLANE ( 'NONE',  #112 ) ;
#97 = PERSON_AND_ORGANIZATION ( #159, #27 ) ;
#98 = CARTESIAN_POINT ( 'NONE',  ( 4.500000000000000000, 0.0000000000000000000, 0.0000000000000000000 ) ) ;
#99 = ADVANCED_FACE ( 'NONE', ( #69 ), #25, .T. ) ;
#100 = CARTESIAN_POINT ( 'NONE',  ( 4.500000000000000000, 0.0000000000000000000, -2.000000000000000000 ) ) ;
#101 = CC_DESIGN_SECURITY_CLASSIFICATION ( #9, ( #164 ) ) ;
#102 = DESIGN_CONTEXT ( 'detailed design', #77, 'design' ) ;
#103 = DATE_AND_TIME ( #127, #37 ) ;
#104 = DIRECTION ( 'NONE',  ( 1.000000000000000000, 0.0000000000000000000, 0.0000000000000000000 ) ) ;
#105 = APPROVAL_STATUS ( 'not_yet_approved' ) ;
#106 = CIRCLE ( 'NONE', #126, 4.500000000000000000 ) ;
#107 =( NAMED_UNIT ( * ) SI_UNIT ( $, .STERADIAN. ) SOLID_ANGLE_UNIT ( ) );
#108 = MECHANICAL_CONTEXT ( 'NONE', #88, 'mechanical' ) ;
#109 = CYLINDRICAL_SURFACE ( 'NONE', #123, 4.500000000000000000 ) ;
#110 = CC_DESIGN_APPROVAL ( #61, ( #164 ) ) ;
#111 = ORIENTED_EDGE ( 'NONE', *, *, #78, .T. ) ;
#112 = AXIS2_PLACEMENT_3D ( 'NONE', #12, #175, #14 ) ;
#113 = APPROVAL_DATE_TIME ( #150, #144 ) ;
#114 = PERSON_AND_ORGANIZATION ( #159, #27 ) ;
#115 = DIRECTION ( 'NONE',  ( 1.000000000000000000, 0.0000000000000000000, 0.0000000000000000000 ) ) ;
#116 = CARTESIAN_POINT ( 'NONE',  ( 0.0000000000000000000, 0.0000000000000000000, -2.000000000000000000 ) ) ;
#117 = CARTESIAN_POINT ( 'NONE',  ( -4.500000000000000000, 5.510910596163088569E-16, -2.000000000000000000 ) ) ;
#118 = ADVANCED_FACE ( 'NONE', ( #34 ), #135, .T. ) ;
#119 = ORIENTED_EDGE ( 'NONE', *, *, #15, .T. ) ;
#120 = CARTESIAN_POINT ( 'NONE',  ( 0.0000000000000000000, 0.0000000000000000000, 0.0000000000000000000 ) ) ;
#121 = DATE_AND_TIME ( #87, #50 ) ;
#122 = APPROVAL_ROLE ( '' ) ;
#123 = AXIS2_PLACEMENT_3D ( 'NONE', #130, #162, #48 ) ;
#124 = PERSON_AND_ORGANIZATION_ROLE ( 'creator' ) ;
#125 = PRODUCT_RELATED_PRODUCT_CATEGORY ( 'detail', '', ( #2 ) ) ;
#126 = AXIS2_PLACEMENT_3D ( 'NONE', #74, #35, #26 ) ;
#127 = CALENDAR_DATE ( 2020, 3, 11 ) ;
#128 = APPROVAL ( #3, 'UNSPECIFIED' ) ;
#129 = CLOSED_SHELL ( 'NONE', ( #55, #118, #23, #99 ) ) ;
#130 = CARTESIAN_POINT ( 'NONE',  ( 0.0000000000000000000, 0.0000000000000000000, -2.000000000000000000 ) ) ;
#131 = EDGE_CURVE ( 'NONE', #173, #71, #60, .T. ) ;
#132 = DIRECTION ( 'NONE',  ( 0.0000000000000000000, 0.0000000000000000000, 1.000000000000000000 ) ) ;
#133 = SHAPE_DEFINITION_REPRESENTATION ( #31, #59 ) ;
#134 = PERSON_AND_ORGANIZATION_ROLE ( 'design_owner' ) ;
#135 = CYLINDRICAL_SURFACE ( 'NONE', #154, 4.500000000000000000 ) ;
#136 = DIRECTION ( 'NONE',  ( 1.000000000000000000, 0.0000000000000000000, 0.0000000000000000000 ) ) ;
#137 = CC_DESIGN_DATE_AND_TIME_ASSIGNMENT ( #41, #67, ( #9 ) ) ;
#138 = CALENDAR_DATE ( 2020, 3, 11 ) ;
#139 = PERSON_AND_ORGANIZATION ( #159, #27 ) ;
#140 = APPROVAL_DATE_TIME ( #13, #128 ) ;
#141 = CC_DESIGN_PERSON_AND_ORGANIZATION_ASSIGNMENT ( #90, #149, ( #9 ) ) ;
#142 = LINE ( 'NONE', #145, #49 ) ;
#143 = DIRECTION ( 'NONE',  ( 1.000000000000000000, 0.0000000000000000000, 0.0000000000000000000 ) ) ;
#144 = APPROVAL ( #105, 'UNSPECIFIED' ) ;
#145 = CARTESIAN_POINT ( 'NONE',  ( 4.500000000000000000, 0.0000000000000000000, -2.000000000000000000 ) ) ;
#146 = CARTESIAN_POINT ( 'NONE',  ( 0.0000000000000000000, 0.0000000000000000000, -2.000000000000000000 ) ) ;
#147 = PRODUCT_DEFINITION ( 'UNKNOWN', '', #164, #102 ) ;
#148 = AXIS2_PLACEMENT_3D ( 'NONE', #146, #40, #136 ) ;
#149 = PERSON_AND_ORGANIZATION_ROLE ( 'classification_officer' ) ;
#150 = DATE_AND_TIME ( #7, #17 ) ;
#151 = PERSON_AND_ORGANIZATION ( #159, #27 ) ;
#152 = VERTEX_POINT ( 'NONE', #36 ) ;
#153 = CC_DESIGN_APPROVAL ( #128, ( #147 ) ) ;
#154 = AXIS2_PLACEMENT_3D ( 'NONE', #116, #158, #143 ) ;
#155 = AXIS2_PLACEMENT_3D ( 'NONE', #11, #62, #160 ) ;
#156 = CARTESIAN_POINT ( 'NONE',  ( -4.500000000000000000, 5.510910596163088569E-16, -2.000000000000000000 ) ) ;
#157 = ORIENTED_EDGE ( 'NONE', *, *, #54, .T. ) ;
#158 = DIRECTION ( 'NONE',  ( 0.0000000000000000000, 0.0000000000000000000, 1.000000000000000000 ) ) ;
#159 = PERSON ( 'UNSPECIFIED', 'UNSPECIFIED', 'UNSPECIFIED', ('UNSPECIFIED'), ('UNSPECIFIED'), ('UNSPECIFIED') ) ;
#160 = DIRECTION ( 'NONE',  ( 1.000000000000000000, 0.0000000000000000000, -0.0000000000000000000 ) ) ;
#161 = CC_DESIGN_PERSON_AND_ORGANIZATION_ASSIGNMENT ( #80, #4, ( #164 ) ) ;
#162 = DIRECTION ( 'NONE',  ( 0.0000000000000000000, 0.0000000000000000000, 1.000000000000000000 ) ) ;
#163 = APPROVAL_PERSON_ORGANIZATION ( #45, #144, #166 ) ;
#164 = PRODUCT_DEFINITION_FORMATION_WITH_SPECIFIED_SOURCE ( 'ANY', '', #2, .NOT_KNOWN. ) ;
#165 = APPLICATION_PROTOCOL_DEFINITION ( 'international standard', 'config_control_design', 1994, #88 ) ;
#166 = APPROVAL_ROLE ( '' ) ;
#167 = PERSON_AND_ORGANIZATION ( #159, #27 ) ;
#168 = ORIENTED_EDGE ( 'NONE', *, *, #54, .F. ) ;
#169 = CC_DESIGN_PERSON_AND_ORGANIZATION_ASSIGNMENT ( #114, #124, ( #164 ) ) ;
#170 =( GEOMETRIC_REPRESENTATION_CONTEXT ( 3 ) GLOBAL_UNCERTAINTY_ASSIGNED_CONTEXT ( ( #82 ) ) GLOBAL_UNIT_ASSIGNED_CONTEXT ( ( #63, #75, #107 ) ) REPRESENTATION_CONTEXT ( 'NONE', 'WORKASPACE' ) );
#171 = ORIENTED_EDGE ( 'NONE', *, *, #38, .F. ) ;
#172 = APPROVAL_DATE_TIME ( #103, #61 ) ;
#173 = VERTEX_POINT ( 'NONE', #100 ) ;
#174 = EDGE_LOOP ( 'NONE', ( #119, #93 ) ) ;
#175 = DIRECTION ( 'NONE',  ( 0.0000000000000000000, 0.0000000000000000000, 1.000000000000000000 ) ) ;
ENDSEC;
END-ISO-10303-21;
