ISO-10303-21;
HEADER;
FILE_DESCRIPTION (( 'STEP AP214' ),
    '1' );
FILE_NAME ('5445-E0W.STEP',
    '2009-12-23T16:30:32',
    ( 'Admin' ),
    ( 'Thorlabs, Inc.' ),
    'SwSTEP 2.0',
    'SolidWorks 2009',
    '' );
FILE_SCHEMA (( 'AUTOMOTIVE_DESIGN' ));
ENDSEC;

DATA;
#1 = EDGE_LOOP ( 'NONE', ( #34, #10, #35, #13, #14 ) ) ;
#2 = ORIENTED_EDGE ( 'NONE', *, *, #26, .F. ) ;
#3 = VERTEX_POINT ( 'NONE', #71 ) ;
#4 = ADVANCED_FACE ( 'NONE', ( #46 ), #67, .F. ) ;
#5 = EDGE_CURVE ( 'NONE', #3, #61, #56, .T. ) ;
#6 = ORIENTED_EDGE ( 'NONE', *, *, #33, .F. ) ;
#7 = ORIENTED_EDGE ( 'NONE', *, *, #25, .T. ) ;
#8 = ORIENTED_EDGE ( 'NONE', *, *, #5, .T. ) ;
#9 = ORIENTED_EDGE ( 'NONE', *, *, #12, .T. ) ;
#10 = ORIENTED_EDGE ( 'NONE', *, *, #33, .T. ) ;
#11 = CLOSED_SHELL ( 'NONE', ( #51, #28, #37, #4, #24 ) ) ;
#12 = EDGE_CURVE ( 'NONE', #3, #18, #109, .T. ) ;
#13 = ORIENTED_EDGE ( 'NONE', *, *, #25, .F. ) ;
#14 = ORIENTED_EDGE ( 'NONE', *, *, #15, .F. ) ;
#15 = EDGE_CURVE ( 'NONE', #69, #18, #79, .T. ) ;
#16 = EDGE_CURVE ( 'NONE', #27, #39, #147, .T. ) ;
#17 = EDGE_LOOP ( 'NONE', ( #2, #6 ) ) ;
#18 = VERTEX_POINT ( 'NONE', #76 ) ;
#19 = EDGE_LOOP ( 'NONE', ( #20, #9, #7, #36 ) ) ;
#20 = ORIENTED_EDGE ( 'NONE', *, *, #5, .F. ) ;
#21 = ORIENTED_EDGE ( 'NONE', *, *, #15, .T. ) ;
#22 = ORIENTED_EDGE ( 'NONE', *, *, #78, .T. ) ;
#23 = EDGE_LOOP ( 'NONE', ( #32, #8, #22, #21 ) ) ;
#24 = ADVANCED_FACE ( 'NONE', ( #75 ), #50, .T. ) ;
#25 = EDGE_CURVE ( 'NONE', #18, #39, #100, .T. ) ;
#26 = EDGE_CURVE ( 'NONE', #27, #31, #88, .T. ) ;
#27 = VERTEX_POINT ( 'NONE', #143 ) ;
#28 = ADVANCED_FACE ( 'NONE', ( #142 ), #153, .F. ) ;
#29 = EDGE_LOOP ( 'NONE', ( #70, #30, #131, #42, #41 ) ) ;
#30 = ORIENTED_EDGE ( 'NONE', *, *, #116, .T. ) ;
#31 = VERTEX_POINT ( 'NONE', #157 ) ;
#32 = ORIENTED_EDGE ( 'NONE', *, *, #12, .F. ) ;
#33 = EDGE_CURVE ( 'NONE', #31, #27, #155, .T. ) ;
#34 = ORIENTED_EDGE ( 'NONE', *, *, #116, .F. ) ;
#35 = ORIENTED_EDGE ( 'NONE', *, *, #16, .T. ) ;
#36 = ORIENTED_EDGE ( 'NONE', *, *, #38, .T. ) ;
#37 = ADVANCED_FACE ( 'NONE', ( #179 ), #183, .F. ) ;
#38 = EDGE_CURVE ( 'NONE', #39, #61, #201, .T. ) ;
#39 = VERTEX_POINT ( 'NONE', #224 ) ;
#40 =( CONVERSION_BASED_UNIT ( 'INCH', #216 ) LENGTH_UNIT ( ) NAMED_UNIT ( #217 ) );
#41 = ORIENTED_EDGE ( 'NONE', *, *, #16, .F. ) ;
#42 = ORIENTED_EDGE ( 'NONE', *, *, #38, .F. ) ;
#43 = DIMENSIONAL_EXPONENTS ( 1.000000000000000000, 0.0000000000000000000, 0.0000000000000000000, 0.0000000000000000000, 0.0000000000000000000, 0.0000000000000000000, 0.0000000000000000000 ) ;
#44 =( LENGTH_UNIT ( ) NAMED_UNIT ( * ) SI_UNIT ( $, .METRE. ) );
#45 = FILL_AREA_STYLE ('',( #59 ) ) ;
#46 = FACE_OUTER_BOUND ( 'NONE', #17, .T. ) ;
#47 = DIMENSIONAL_EXPONENTS ( 1.000000000000000000, 0.0000000000000000000, 0.0000000000000000000, 0.0000000000000000000, 0.0000000000000000000, 0.0000000000000000000, 0.0000000000000000000 ) ;
#48 = CARTESIAN_POINT ( 'NONE',  ( 0.0000000000000000000, 0.0000000000000000000, 0.3550060342688710600 ) ) ;
#49 = AXIS2_PLACEMENT_3D ( 'NONE', #48, #102, #101 ) ;
#50 = CYLINDRICAL_SURFACE ( 'NONE', #49, 0.1771653543307086800 ) ;
#51 = ADVANCED_FACE ( 'NONE', ( #207 ), #198, .T. ) ;
#52 =( GEOMETRIC_REPRESENTATION_CONTEXT ( 3 ) GLOBAL_UNCERTAINTY_ASSIGNED_CONTEXT ( ( #64 ) ) GLOBAL_UNIT_ASSIGNED_CONTEXT ( ( #92, #91, #65 ) ) REPRESENTATION_CONTEXT ( 'NONE', 'WORKASPACE' ) );
#53 = DIRECTION ( 'NONE',  ( 1.000000000000000000, 0.0000000000000000000, 0.0000000000000000000 ) ) ;
#54 = CARTESIAN_POINT ( 'NONE',  ( 0.0000000000000000000, 0.0000000000000000000, 0.6007874015748031500 ) ) ;
#55 = AXIS2_PLACEMENT_3D ( 'NONE', #54, #53, #83 ) ;
#56 = CIRCLE ( 'NONE', #55, 0.5515748031496062700 ) ;
#57 = CARTESIAN_POINT ( 'NONE',  ( 0.0000000000000000000, 0.0000000000000000000, 0.6007874015748031500 ) ) ;
#58 =( NAMED_UNIT ( * ) SI_UNIT ( $, .STERADIAN. ) SOLID_ANGLE_UNIT ( ) );
#59 = FILL_AREA_STYLE_COLOUR ( '', #114 ) ;
#60 =( NAMED_UNIT ( * ) PLANE_ANGLE_UNIT ( ) SI_UNIT ( $, .RADIAN. ) );
#61 = VERTEX_POINT ( 'NONE', #189 ) ;
#62 = STYLED_ITEM ( 'NONE', ( #63 ), #4 ) ;
#63 = PRESENTATION_STYLE_ASSIGNMENT (( #94 ) ) ;
#64 = UNCERTAINTY_MEASURE_WITH_UNIT (LENGTH_MEASURE( 1.000000000000000100E-005 ), #92, 'distance_accuracy_value', 'NONE');
#65 =( NAMED_UNIT ( * ) SI_UNIT ( $, .STERADIAN. ) SOLID_ANGLE_UNIT ( ) );
#66 = MANIFOLD_SOLID_BREP ( 'NONE', #11 ) ;
#67 = PLANE ( 'NONE',  #68 ) ;
#68 = AXIS2_PLACEMENT_3D ( 'NONE', #105, #104, #103 ) ;
#69 = VERTEX_POINT ( 'NONE', #188 ) ;
#70 = ORIENTED_EDGE ( 'NONE', *, *, #26, .T. ) ;
#71 = CARTESIAN_POINT ( 'NONE',  ( 0.0000000000000000000, 3.377310042726673900E-017, 0.04921259842519682500 ) ) ;
#72 = FILL_AREA_STYLE ('',( #73 ) ) ;
#73 = FILL_AREA_STYLE_COLOUR ( '', #74 ) ;
#74 = COLOUR_RGB ( '',1.000000000000000000, 1.000000000000000000, 1.000000000000000000 ) ;
#75 = FACE_OUTER_BOUND ( 'NONE', #1, .T. ) ;
#76 = CARTESIAN_POINT ( 'NONE',  ( -2.169578185905786800E-017, -0.1771653543307086800, 0.07843962404109772200 ) ) ;
#77 = VECTOR ( 'NONE', #81, 39.37007874015748100 ) ;
#78 = EDGE_CURVE ( 'NONE', #61, #69, #186, .T. ) ;
#79 = CIRCLE ( 'NONE', #146, 0.1771653543307086800 ) ;
#80 = DIRECTION ( 'NONE',  ( -1.224606353822377300E-016, -1.000000000000000000, 0.0000000000000000000 ) ) ;
#81 = DIRECTION ( 'NONE',  ( -0.0000000000000000000, -0.0000000000000000000, 1.000000000000000000 ) ) ;
#82 = CARTESIAN_POINT ( 'NONE',  ( 0.1771653543307086800, 0.0000000000000000000, 0.3550060342688710600 ) ) ;
#83 = DIRECTION ( 'NONE',  ( 0.0000000000000000000, 0.0000000000000000000, -1.000000000000000000 ) ) ;
#84 = DIRECTION ( 'NONE',  ( 1.000000000000000000, 0.0000000000000000000, 0.0000000000000000000 ) ) ;
#85 = DIRECTION ( 'NONE',  ( -0.0000000000000000000, -0.0000000000000000000, 1.000000000000000000 ) ) ;
#86 = CARTESIAN_POINT ( 'NONE',  ( 0.0000000000000000000, 0.0000000000000000000, -0.04921259842519682500 ) ) ;
#87 = AXIS2_PLACEMENT_3D ( 'NONE', #86, #85, #84 ) ;
#88 = CIRCLE ( 'NONE', #87, 0.1771653543307086500 ) ;
#89 = FILL_AREA_STYLE_COLOUR ( '', #141 ) ;
#90 = UNCERTAINTY_MEASURE_WITH_UNIT (LENGTH_MEASURE( 1.000000000000000100E-005 ), #129, 'distance_accuracy_value', 'NONE');
#91 =( NAMED_UNIT ( * ) PLANE_ANGLE_UNIT ( ) SI_UNIT ( $, .RADIAN. ) );
#92 =( CONVERSION_BASED_UNIT ( 'INCH', #93 ) LENGTH_UNIT ( ) NAMED_UNIT ( #43 ) );
#93 = LENGTH_MEASURE_WITH_UNIT ( LENGTH_MEASURE( 0.02539999999999999900 ), #44 );
#94 = SURFACE_STYLE_USAGE ( .BOTH. , #95 ) ;
#95 = SURFACE_SIDE_STYLE ('',( #113 ) ) ;
#96 = DIRECTION ( 'NONE',  ( 1.000000000000000000, 0.0000000000000000000, 0.0000000000000000000 ) ) ;
#97 = DIRECTION ( 'NONE',  ( -0.0000000000000000000, -0.0000000000000000000, 1.000000000000000000 ) ) ;
#98 = CARTESIAN_POINT ( 'NONE',  ( 0.0000000000000000000, 0.0000000000000000000, 0.07843962404109772200 ) ) ;
#99 = AXIS2_PLACEMENT_3D ( 'NONE', #98, #97, #96 ) ;
#100 = CIRCLE ( 'NONE', #99, 0.1771653543307086800 ) ;
#101 = DIRECTION ( 'NONE',  ( 1.000000000000000000, 0.0000000000000000000, 0.0000000000000000000 ) ) ;
#102 = DIRECTION ( 'NONE',  ( -0.0000000000000000000, -0.0000000000000000000, 1.000000000000000000 ) ) ;
#103 = DIRECTION ( 'NONE',  ( 1.000000000000000000, 0.0000000000000000000, 0.0000000000000000000 ) ) ;
#104 = DIRECTION ( 'NONE',  ( 0.0000000000000000000, -0.0000000000000000000, 1.000000000000000000 ) ) ;
#105 = CARTESIAN_POINT ( 'NONE',  ( 0.0000000000000000000, 1.808041534174241900E-017, -0.04921259842519685300 ) ) ;
#106 =( NAMED_UNIT ( * ) PLANE_ANGLE_UNIT ( ) SI_UNIT ( $, .RADIAN. ) );
#107 = DIRECTION ( 'NONE',  ( -1.000000000000000000, 1.224606353822377300E-016, 0.0000000000000000000 ) ) ;
#108 = AXIS2_PLACEMENT_3D ( 'NONE', #57, #107, #80 ) ;
#109 = CIRCLE ( 'NONE', #108, 0.5515748031496062700 ) ;
#110 = CARTESIAN_POINT ( 'NONE',  ( 0.0000000000000000000, 0.0000000000000000000, 0.07843962404109772200 ) ) ;
#111 = MECHANICAL_DESIGN_GEOMETRIC_PRESENTATION_REPRESENTATION (  '', ( #62 ), #121 ) ;
#112 = PRESENTATION_LAYER_ASSIGNMENT (  '', '', ( #62 ) ) ;
#113 = SURFACE_STYLE_FILL_AREA ( #45 ) ;
#114 = COLOUR_RGB ( '',1.000000000000000000, 1.000000000000000000, 1.000000000000000000 ) ;
#115 =( LENGTH_UNIT ( ) NAMED_UNIT ( * ) SI_UNIT ( $, .METRE. ) );
#116 = EDGE_CURVE ( 'NONE', #31, #69, #187, .T. ) ;
#117 =( NAMED_UNIT ( * ) PLANE_ANGLE_UNIT ( ) SI_UNIT ( $, .RADIAN. ) );
#118 =( CONVERSION_BASED_UNIT ( 'INCH', #119 ) LENGTH_UNIT ( ) NAMED_UNIT ( #120 ) );
#119 = LENGTH_MEASURE_WITH_UNIT ( LENGTH_MEASURE( 0.02539999999999999900 ), #132 );
#120 = DIMENSIONAL_EXPONENTS ( 1.000000000000000000, 0.0000000000000000000, 0.0000000000000000000, 0.0000000000000000000, 0.0000000000000000000, 0.0000000000000000000, 0.0000000000000000000 ) ;
#121 =( GEOMETRIC_REPRESENTATION_CONTEXT ( 3 ) GLOBAL_UNCERTAINTY_ASSIGNED_CONTEXT ( ( #90 ) ) GLOBAL_UNIT_ASSIGNED_CONTEXT ( ( #129, #60, #58 ) ) REPRESENTATION_CONTEXT ( 'NONE', 'WORKASPACE' ) );
#122 = MECHANICAL_DESIGN_GEOMETRIC_PRESENTATION_REPRESENTATION (  '', ( #124 ), #52 ) ;
#123 = PRESENTATION_LAYER_ASSIGNMENT (  '', '', ( #124 ) ) ;
#124 = STYLED_ITEM ( 'NONE', ( #125 ), #24 ) ;
#125 = PRESENTATION_STYLE_ASSIGNMENT (( #126 ) ) ;
#126 = SURFACE_STYLE_USAGE ( .BOTH. , #127 ) ;
#127 = SURFACE_SIDE_STYLE ('',( #128 ) ) ;
#128 = SURFACE_STYLE_FILL_AREA ( #72 ) ;
#129 =( CONVERSION_BASED_UNIT ( 'INCH', #130 ) LENGTH_UNIT ( ) NAMED_UNIT ( #47 ) );
#130 = LENGTH_MEASURE_WITH_UNIT ( LENGTH_MEASURE( 0.02539999999999999900 ), #115 );
#131 = ORIENTED_EDGE ( 'NONE', *, *, #78, .F. ) ;
#132 =( LENGTH_UNIT ( ) NAMED_UNIT ( * ) SI_UNIT ( $, .METRE. ) );
#133 = MECHANICAL_DESIGN_GEOMETRIC_PRESENTATION_REPRESENTATION (  '', ( #135 ), #154 ) ;
#134 = PRESENTATION_LAYER_ASSIGNMENT (  '', '', ( #135 ) ) ;
#135 = STYLED_ITEM ( 'NONE', ( #136 ), #28 ) ;
#136 = PRESENTATION_STYLE_ASSIGNMENT (( #137 ) ) ;
#137 = SURFACE_STYLE_USAGE ( .BOTH. , #138 ) ;
#138 = SURFACE_SIDE_STYLE ('',( #139 ) ) ;
#139 = SURFACE_STYLE_FILL_AREA ( #140 ) ;
#140 = FILL_AREA_STYLE ('',( #89 ) ) ;
#141 = COLOUR_RGB ( '',1.000000000000000000, 1.000000000000000000, 1.000000000000000000 ) ;
#142 = FACE_OUTER_BOUND ( 'NONE', #19, .T. ) ;
#143 = CARTESIAN_POINT ( 'NONE',  ( 0.1771653543307086500, 0.0000000000000000000, -0.04921259842519682500 ) ) ;
#144 = DIRECTION ( 'NONE',  ( 1.000000000000000000, 0.0000000000000000000, 0.0000000000000000000 ) ) ;
#145 = DIRECTION ( 'NONE',  ( -0.0000000000000000000, -0.0000000000000000000, 1.000000000000000000 ) ) ;
#146 = AXIS2_PLACEMENT_3D ( 'NONE', #110, #145, #144 ) ;
#147 = LINE ( 'NONE', #82, #77 ) ;
#148 =( NAMED_UNIT ( * ) SI_UNIT ( $, .STERADIAN. ) SOLID_ANGLE_UNIT ( ) );
#149 = DIRECTION ( 'NONE',  ( -1.000000000000000000, 0.0000000000000000000, 0.0000000000000000000 ) ) ;
#150 = AXIS2_PLACEMENT_3D ( 'NONE', #152, #149, #156 ) ;
#151 = UNCERTAINTY_MEASURE_WITH_UNIT (LENGTH_MEASURE( 1.000000000000000100E-005 ), #118, 'distance_accuracy_value', 'NONE');
#152 = CARTESIAN_POINT ( 'NONE',  ( 0.0000000000000000000, 0.0000000000000000000, 0.6007874015748031500 ) ) ;
#153 = SPHERICAL_SURFACE ( 'NONE', #150, 0.5515748031496062700 ) ;
#154 =( GEOMETRIC_REPRESENTATION_CONTEXT ( 3 ) GLOBAL_UNCERTAINTY_ASSIGNED_CONTEXT ( ( #151 ) ) GLOBAL_UNIT_ASSIGNED_CONTEXT ( ( #118, #117, #148 ) ) REPRESENTATION_CONTEXT ( 'NONE', 'WORKASPACE' ) );
#155 = CIRCLE ( 'NONE', #163, 0.1771653543307086500 ) ;
#156 = DIRECTION ( 'NONE',  ( 0.0000000000000000000, 1.000000000000000000, 0.0000000000000000000 ) ) ;
#157 = CARTESIAN_POINT ( 'NONE',  ( -0.1771653543307086500, 2.169578185905786500E-017, -0.04921259842519682500 ) ) ;
#158 = FILL_AREA_STYLE_COLOUR ( '', #176 ) ;
#159 =( CONVERSION_BASED_UNIT ( 'INCH', #160 ) LENGTH_UNIT ( ) NAMED_UNIT ( #161 ) );
#160 = LENGTH_MEASURE_WITH_UNIT ( LENGTH_MEASURE( 0.02539999999999999900 ), #177 );
#161 = DIMENSIONAL_EXPONENTS ( 1.000000000000000000, 0.0000000000000000000, 0.0000000000000000000, 0.0000000000000000000, 0.0000000000000000000, 0.0000000000000000000, 0.0000000000000000000 ) ;
#162 =( NAMED_UNIT ( * ) PLANE_ANGLE_UNIT ( ) SI_UNIT ( $, .RADIAN. ) );
#163 = AXIS2_PLACEMENT_3D ( 'NONE', #165, #168, #164 ) ;
#164 = DIRECTION ( 'NONE',  ( 1.000000000000000000, 0.0000000000000000000, 0.0000000000000000000 ) ) ;
#165 = CARTESIAN_POINT ( 'NONE',  ( 0.0000000000000000000, 0.0000000000000000000, -0.04921259842519682500 ) ) ;
#166 = UNCERTAINTY_MEASURE_WITH_UNIT (LENGTH_MEASURE( 1.000000000000000100E-005 ), #159, 'distance_accuracy_value', 'NONE');
#167 =( NAMED_UNIT ( * ) SI_UNIT ( $, .STERADIAN. ) SOLID_ANGLE_UNIT ( ) );
#168 = DIRECTION ( 'NONE',  ( -0.0000000000000000000, -0.0000000000000000000, 1.000000000000000000 ) ) ;
#169 = PRESENTATION_LAYER_ASSIGNMENT (  '', '', ( #170 ) ) ;
#170 = STYLED_ITEM ( 'NONE', ( #172 ), #37 ) ;
#171 = FILL_AREA_STYLE ('',( #158 ) ) ;
#172 = PRESENTATION_STYLE_ASSIGNMENT (( #173 ) ) ;
#173 = SURFACE_STYLE_USAGE ( .BOTH. , #174 ) ;
#174 = SURFACE_SIDE_STYLE ('',( #175 ) ) ;
#175 = SURFACE_STYLE_FILL_AREA ( #171 ) ;
#176 = COLOUR_RGB ( '',1.000000000000000000, 1.000000000000000000, 1.000000000000000000 ) ;
#177 =( LENGTH_UNIT ( ) NAMED_UNIT ( * ) SI_UNIT ( $, .METRE. ) );
#178 = MECHANICAL_DESIGN_GEOMETRIC_PRESENTATION_REPRESENTATION (  '', ( #170 ), #192 ) ;
#179 = FACE_OUTER_BOUND ( 'NONE', #23, .T. ) ;
#180 = LENGTH_MEASURE_WITH_UNIT ( LENGTH_MEASURE( 0.02539999999999999900 ), #182 );
#181 = DIMENSIONAL_EXPONENTS ( 1.000000000000000000, 0.0000000000000000000, 0.0000000000000000000, 0.0000000000000000000, 0.0000000000000000000, 0.0000000000000000000, 0.0000000000000000000 ) ;
#182 =( LENGTH_UNIT ( ) NAMED_UNIT ( * ) SI_UNIT ( $, .METRE. ) );
#183 = SPHERICAL_SURFACE ( 'NONE', #197, 0.5515748031496062700 ) ;
#184 = PRESENTATION_LAYER_ASSIGNMENT (  '', '', ( #225 ) ) ;
#185 = DIRECTION ( 'NONE',  ( 1.000000000000000000, 0.0000000000000000000, 0.0000000000000000000 ) ) ;
#186 = CIRCLE ( 'NONE', #233, 0.1771653543307086800 ) ;
#187 = LINE ( 'NONE', #229, #228 ) ;
#188 = CARTESIAN_POINT ( 'NONE',  ( -0.1771653543307086800, 2.169578185905786800E-017, 0.07843962404109772200 ) ) ;
#189 = CARTESIAN_POINT ( 'NONE',  ( 0.0000000000000000000, 0.1771653543307086800, 0.07843962404109772200 ) ) ;
#190 = DIRECTION ( 'NONE',  ( -0.0000000000000000000, -0.0000000000000000000, 1.000000000000000000 ) ) ;
#191 =( NAMED_UNIT ( * ) SI_UNIT ( $, .STERADIAN. ) SOLID_ANGLE_UNIT ( ) );
#192 =( GEOMETRIC_REPRESENTATION_CONTEXT ( 3 ) GLOBAL_UNCERTAINTY_ASSIGNED_CONTEXT ( ( #166 ) ) GLOBAL_UNIT_ASSIGNED_CONTEXT ( ( #159, #162, #167 ) ) REPRESENTATION_CONTEXT ( 'NONE', 'WORKASPACE' ) );
#193 = FILL_AREA_STYLE ('',( #214 ) ) ;
#194 = AXIS2_PLACEMENT_3D ( 'NONE', #204, #190, #185 ) ;
#195 = UNCERTAINTY_MEASURE_WITH_UNIT (LENGTH_MEASURE( 1.000000000000000100E-005 ), #203, 'distance_accuracy_value', 'NONE');
#196 =( NAMED_UNIT ( * ) SI_UNIT ( $, .STERADIAN. ) SOLID_ANGLE_UNIT ( ) );
#197 = AXIS2_PLACEMENT_3D ( 'NONE', #222, #215, #209 ) ;
#198 = CYLINDRICAL_SURFACE ( 'NONE', #247, 0.1771653543307086800 ) ;
#199 =( GEOMETRIC_REPRESENTATION_CONTEXT ( 3 ) GLOBAL_UNCERTAINTY_ASSIGNED_CONTEXT ( ( #213 ) ) GLOBAL_UNIT_ASSIGNED_CONTEXT ( ( #226, #219, #191 ) ) REPRESENTATION_CONTEXT ( 'NONE', 'WORKASPACE' ) );
#200 = MECHANICAL_DESIGN_GEOMETRIC_PRESENTATION_REPRESENTATION (  '', ( #225 ), #199 ) ;
#201 = CIRCLE ( 'NONE', #194, 0.1771653543307086800 ) ;
#202 =( NAMED_UNIT ( * ) PLANE_ANGLE_UNIT ( ) SI_UNIT ( $, .RADIAN. ) );
#203 =( CONVERSION_BASED_UNIT ( 'INCH', #180 ) LENGTH_UNIT ( ) NAMED_UNIT ( #181 ) );
#204 = CARTESIAN_POINT ( 'NONE',  ( 0.0000000000000000000, 0.0000000000000000000, 0.07843962404109772200 ) ) ;
#205 = SURFACE_SIDE_STYLE ('',( #206 ) ) ;
#206 = SURFACE_STYLE_FILL_AREA ( #193 ) ;
#207 = FACE_OUTER_BOUND ( 'NONE', #29, .T. ) ;
#208 =( LENGTH_UNIT ( ) NAMED_UNIT ( * ) SI_UNIT ( $, .METRE. ) );
#209 = DIRECTION ( 'NONE',  ( 0.0000000000000000000, 1.000000000000000000, 0.0000000000000000000 ) ) ;
#210 = DIMENSIONAL_EXPONENTS ( 1.000000000000000000, 0.0000000000000000000, 0.0000000000000000000, 0.0000000000000000000, 0.0000000000000000000, 0.0000000000000000000, 0.0000000000000000000 ) ;
#211 = PRESENTATION_STYLE_ASSIGNMENT (( #212 ) ) ;
#212 = SURFACE_STYLE_USAGE ( .BOTH. , #205 ) ;
#213 = UNCERTAINTY_MEASURE_WITH_UNIT (LENGTH_MEASURE( 1.000000000000000100E-005 ), #226, 'distance_accuracy_value', 'NONE');
#214 = FILL_AREA_STYLE_COLOUR ( '', #221 ) ;
#215 = DIRECTION ( 'NONE',  ( -1.000000000000000000, 0.0000000000000000000, 0.0000000000000000000 ) ) ;
#216 = LENGTH_MEASURE_WITH_UNIT ( LENGTH_MEASURE( 0.02539999999999999900 ), #218 );
#217 = DIMENSIONAL_EXPONENTS ( 1.000000000000000000, 0.0000000000000000000, 0.0000000000000000000, 0.0000000000000000000, 0.0000000000000000000, 0.0000000000000000000, 0.0000000000000000000 ) ;
#218 =( LENGTH_UNIT ( ) NAMED_UNIT ( * ) SI_UNIT ( $, .METRE. ) );
#219 =( NAMED_UNIT ( * ) PLANE_ANGLE_UNIT ( ) SI_UNIT ( $, .RADIAN. ) );
#220 =( GEOMETRIC_REPRESENTATION_CONTEXT ( 3 ) GLOBAL_UNCERTAINTY_ASSIGNED_CONTEXT ( ( #195 ) ) GLOBAL_UNIT_ASSIGNED_CONTEXT ( ( #203, #202, #196 ) ) REPRESENTATION_CONTEXT ( 'NONE', 'WORKASPACE' ) );
#221 = COLOUR_RGB ( '',1.000000000000000000, 1.000000000000000000, 1.000000000000000000 ) ;
#222 = CARTESIAN_POINT ( 'NONE',  ( 0.0000000000000000000, 0.0000000000000000000, 0.6007874015748031500 ) ) ;
#223 = LENGTH_MEASURE_WITH_UNIT ( LENGTH_MEASURE( 0.02539999999999999900 ), #208 );
#224 = CARTESIAN_POINT ( 'NONE',  ( 0.1771653543307086800, 0.0000000000000000000, 0.07843962404109772200 ) ) ;
#225 = STYLED_ITEM ( 'NONE', ( #211 ), #51 ) ;
#226 =( CONVERSION_BASED_UNIT ( 'INCH', #223 ) LENGTH_UNIT ( ) NAMED_UNIT ( #210 ) );
#227 = DIRECTION ( 'NONE',  ( -0.0000000000000000000, -0.0000000000000000000, 1.000000000000000000 ) ) ;
#228 = VECTOR ( 'NONE', #227, 39.37007874015748100 ) ;
#229 = CARTESIAN_POINT ( 'NONE',  ( -0.1771653543307086800, 2.169578185905786800E-017, 0.3550060342688710600 ) ) ;
#230 = DIRECTION ( 'NONE',  ( 1.000000000000000000, 0.0000000000000000000, 0.0000000000000000000 ) ) ;
#231 = DIRECTION ( 'NONE',  ( -0.0000000000000000000, -0.0000000000000000000, 1.000000000000000000 ) ) ;
#232 = CARTESIAN_POINT ( 'NONE',  ( 0.0000000000000000000, 0.0000000000000000000, 0.07843962404109772200 ) ) ;
#233 = AXIS2_PLACEMENT_3D ( 'NONE', #232, #231, #230 ) ;
#234 = MECHANICAL_DESIGN_GEOMETRIC_PRESENTATION_REPRESENTATION (  '', ( #236 ), #220 ) ;
#235 = PRESENTATION_LAYER_ASSIGNMENT (  '', '', ( #236 ) ) ;
#236 = STYLED_ITEM ( 'NONE', ( #237 ), #66 ) ;
#237 = PRESENTATION_STYLE_ASSIGNMENT (( #238 ) ) ;
#238 = SURFACE_STYLE_USAGE ( .BOTH. , #239 ) ;
#239 = SURFACE_SIDE_STYLE ('',( #240 ) ) ;
#240 = SURFACE_STYLE_FILL_AREA ( #241 ) ;
#241 = FILL_AREA_STYLE ('',( #242 ) ) ;
#242 = FILL_AREA_STYLE_COLOUR ( '', #243 ) ;
#243 = COLOUR_RGB ( '',0.7529411764705882200, 0.7529411764705882200, 0.7529411764705882200 ) ;
#244 = DIRECTION ( 'NONE',  ( 1.000000000000000000, 0.0000000000000000000, 0.0000000000000000000 ) ) ;
#245 = DIRECTION ( 'NONE',  ( -0.0000000000000000000, -0.0000000000000000000, 1.000000000000000000 ) ) ;
#246 = CARTESIAN_POINT ( 'NONE',  ( 0.0000000000000000000, 0.0000000000000000000, 0.3550060342688710600 ) ) ;
#247 = AXIS2_PLACEMENT_3D ( 'NONE', #246, #245, #244 ) ;
#248 =( NAMED_UNIT ( * ) PLANE_ANGLE_UNIT ( ) SI_UNIT ( $, .RADIAN. ) );
#249 = UNCERTAINTY_MEASURE_WITH_UNIT (LENGTH_MEASURE( 1.000000000000000100E-005 ), #255, 'distance_accuracy_value', 'NONE');
#250 = AXIS2_PLACEMENT_3D ( 'NONE', #259, #262, #261 ) ;
#251 =( NAMED_UNIT ( * ) SI_UNIT ( $, .STERADIAN. ) SOLID_ANGLE_UNIT ( ) );
#252 = MECHANICAL_DESIGN_GEOMETRIC_PRESENTATION_REPRESENTATION (  '', ( #271 ), #268 ) ;
#253 = FILL_AREA_STYLE ('',( #254 ) ) ;
#254 = FILL_AREA_STYLE_COLOUR ( '', #266 ) ;
#255 =( CONVERSION_BASED_UNIT ( 'INCH', #269 ) LENGTH_UNIT ( ) NAMED_UNIT ( #263 ) );
#256 = UNCERTAINTY_MEASURE_WITH_UNIT (LENGTH_MEASURE( 1.000000000000000100E-005 ), #40, 'distance_accuracy_value', 'NONE');
#257 = ADVANCED_BREP_SHAPE_REPRESENTATION ( '5445-E0W', ( #66, #250 ), #258 ) ;
#258 =( GEOMETRIC_REPRESENTATION_CONTEXT ( 3 ) GLOBAL_UNCERTAINTY_ASSIGNED_CONTEXT ( ( #256 ) ) GLOBAL_UNIT_ASSIGNED_CONTEXT ( ( #40, #106, #267 ) ) REPRESENTATION_CONTEXT ( 'NONE', 'WORKASPACE' ) );
#259 = CARTESIAN_POINT ( 'NONE',  ( 0.0000000000000000000, 0.0000000000000000000, 0.0000000000000000000 ) ) ;
#260 =( LENGTH_UNIT ( ) NAMED_UNIT ( * ) SI_UNIT ( $, .METRE. ) );
#261 = DIRECTION ( 'NONE',  ( 1.000000000000000000, 0.0000000000000000000, 0.0000000000000000000 ) ) ;
#262 = DIRECTION ( 'NONE',  ( 0.0000000000000000000, 0.0000000000000000000, 1.000000000000000000 ) ) ;
#263 = DIMENSIONAL_EXPONENTS ( 1.000000000000000000, 0.0000000000000000000, 0.0000000000000000000, 0.0000000000000000000, 0.0000000000000000000, 0.0000000000000000000, 0.0000000000000000000 ) ;
#264 = SURFACE_SIDE_STYLE ('',( #265 ) ) ;
#265 = SURFACE_STYLE_FILL_AREA ( #253 ) ;
#266 = COLOUR_RGB ( '',0.7529411764705882200, 0.7529411764705882200, 0.7529411764705882200 ) ;
#267 =( NAMED_UNIT ( * ) SI_UNIT ( $, .STERADIAN. ) SOLID_ANGLE_UNIT ( ) );
#268 =( GEOMETRIC_REPRESENTATION_CONTEXT ( 3 ) GLOBAL_UNCERTAINTY_ASSIGNED_CONTEXT ( ( #249 ) ) GLOBAL_UNIT_ASSIGNED_CONTEXT ( ( #255, #248, #251 ) ) REPRESENTATION_CONTEXT ( 'NONE', 'WORKASPACE' ) );
#269 = LENGTH_MEASURE_WITH_UNIT ( LENGTH_MEASURE( 0.02539999999999999900 ), #260 );
#270 = PRESENTATION_LAYER_ASSIGNMENT (  '', '', ( #271 ) ) ;
#271 = STYLED_ITEM ( 'NONE', ( #272 ), #257 ) ;
#272 = PRESENTATION_STYLE_ASSIGNMENT (( #273 ) ) ;
#273 = SURFACE_STYLE_USAGE ( .BOTH. , #264 ) ;
#274 = PRODUCT ( '5445-E0W', '5445-E0W', '', ( #275 ) ) ;
#275 = PRODUCT_CONTEXT ( 'NONE', #282, 'mechanical' ) ;
#276 = APPLICATION_PROTOCOL_DEFINITION ( 'draft international standard', 'automotive_design', 1998, #282 ) ;
#277 = PRODUCT_DEFINITION_SHAPE ( 'NONE', 'NONE',  #278 ) ;
#278 = PRODUCT_DEFINITION ( 'UNKNOWN', '', #285, #279 ) ;
#279 = PRODUCT_DEFINITION_CONTEXT ( 'detailed design', #281, 'design' ) ;
#280 = APPLICATION_PROTOCOL_DEFINITION ( 'draft international standard', 'automotive_design', 1998, #281 ) ;
#281 = APPLICATION_CONTEXT ( 'automotive_design' ) ;
#282 = APPLICATION_CONTEXT ( 'automotive_design' ) ;
#283 = SHAPE_DEFINITION_REPRESENTATION ( #277, #257 ) ;
#284 = PRODUCT_RELATED_PRODUCT_CATEGORY ( 'part', '', ( #274 ) ) ;
#285 = PRODUCT_DEFINITION_FORMATION_WITH_SPECIFIED_SOURCE ( 'ANY', '', #274, .NOT_KNOWN. ) ;
ENDSEC;
END-ISO-10303-21;
