ISO-10303-21;
HEADER;
FILE_DESCRIPTION (( 'STEP AP203' ),
    '1' );
FILE_NAME ('Web Model 18463_18463.step',
    '2021-09-13T18:26:14',
    ( '' ),
    ( '' ),
    'SwSTEP 2.0',
    'SolidWorks 2018',
    '' );
FILE_SCHEMA (( 'CONFIG_CONTROL_DESIGN' ));
ENDSEC;

DATA;
#1 = EDGE_LOOP ( 'NONE', ( #31, #14, #116, #141 ) ) ;
#2 = DIRECTION ( 'NONE',  ( 0.000000000000000000, 0.000000000000000000, 1.000000000000000000 ) ) ;
#3 = ADVANCED_FACE ( 'NONE', ( #109 ), #36, .T. ) ;
#4 = CARTESIAN_POINT ( 'NONE',  ( 0.000000000000000000, 0.000000000000000000, 0.5000000000000000000 ) ) ;
#5 = CC_DESIGN_PERSON_AND_ORGANIZATION_ASSIGNMENT ( #89, #10, ( #131 ) ) ;
#6 = ADVANCED_FACE ( 'NONE', ( #148 ), #114, .T. ) ;
#7 = DATE_TIME_ROLE ( 'creation_date' ) ;
#8 = LINE ( 'NONE', #96, #24 ) ;
#9 = APPLICATION_PROTOCOL_DEFINITION ( 'international standard', 'config_control_design', 1994, #154 ) ;
#10 = PERSON_AND_ORGANIZATION_ROLE ( 'design_owner' ) ;
#11 = CC_DESIGN_APPROVAL ( #137, ( #160 ) ) ;
#12 = APPROVAL_STATUS ( 'not_yet_approved' ) ;
#13 = AXIS2_PLACEMENT_3D ( 'NONE', #125, #161, #163 ) ;
#14 = ORIENTED_EDGE ( 'NONE', *, *, #84, .F. ) ;
#15 = APPLICATION_CONTEXT ( 'configuration controlled 3d designs of mechanical parts and assemblies' ) ;
#16 = PERSON ( 'UNSPECIFIED', 'UNSPECIFIED', 'UNSPECIFIED', ('UNSPECIFIED'), ('UNSPECIFIED'), ('UNSPECIFIED') ) ;
#17 = CALENDAR_DATE ( 2021, 13, 9 ) ;
#18 = CC_DESIGN_PERSON_AND_ORGANIZATION_ASSIGNMENT ( #171, #128, ( #62 ) ) ;
#19 = AXIS2_PLACEMENT_3D ( 'NONE', #140, #53, #105 ) ;
#20 = COORDINATED_UNIVERSAL_TIME_OFFSET ( 5, 0, .BEHIND. ) ;
#21 = DIRECTION ( 'NONE',  ( 0.000000000000000000, 0.000000000000000000, 1.000000000000000000 ) ) ;
#22 = COORDINATED_UNIVERSAL_TIME_OFFSET ( 5, 0, .BEHIND. ) ;
#23 = EDGE_CURVE ( 'NONE', #35, #133, #144, .T. ) ;
#24 = VECTOR ( 'NONE', #170, 1000.000000000000000 ) ;
#25 = DIRECTION ( 'NONE',  ( 0.000000000000000000, 0.000000000000000000, 1.000000000000000000 ) ) ;
#26 = CARTESIAN_POINT ( 'NONE',  ( -4.999999999999999112, 0.000000000000000000, 0.5000000000000000000 ) ) ;
#27 = APPLICATION_PROTOCOL_DEFINITION ( 'international standard', 'config_control_design', 1994, #15 ) ;
#28 = CARTESIAN_POINT ( 'NONE',  ( 0.000000000000000000, 0.000000000000000000, 0.000000000000000000 ) ) ;
#29 = PRODUCT_RELATED_PRODUCT_CATEGORY ( 'detail', '', ( #131 ) ) ;
#30 = DATE_AND_TIME ( #120, #59 ) ;
#31 = ORIENTED_EDGE ( 'NONE', *, *, #94, .F. ) ;
#32 = PERSON_AND_ORGANIZATION ( #16, #99 ) ;
#33 = SHAPE_DEFINITION_REPRESENTATION ( #162, #92 ) ;
#34 = EDGE_CURVE ( 'NONE', #90, #167, #107, .T. ) ;
#35 = VERTEX_POINT ( 'NONE', #65 ) ;
#36 = CYLINDRICAL_SURFACE ( 'NONE', #129, 4.999999999999999112 ) ;
#37 = DIRECTION ( 'NONE',  ( -1.000000000000000000, 0.000000000000000000, 0.000000000000000000 ) ) ;
#38 = PERSON_AND_ORGANIZATION ( #16, #99 ) ;
#39 = CIRCLE ( 'NONE', #132, 4.999999999999999112 ) ;
#40 = CARTESIAN_POINT ( 'NONE',  ( 0.000000000000000000, 0.000000000000000000, 0.5000000000000000000 ) ) ;
#41 = SECURITY_CLASSIFICATION_LEVEL ( 'unclassified' ) ;
#42 = APPROVAL_ROLE ( '' ) ;
#43 = DIRECTION ( 'NONE',  ( 1.000000000000000000, 0.000000000000000000, 0.000000000000000000 ) ) ;
#44 = AXIS2_PLACEMENT_3D ( 'NONE', #28, #85, #57 ) ;
#45 = AXIS2_PLACEMENT_3D ( 'NONE', #151, #2, #113 ) ;
#46 = APPROVAL_PERSON_ORGANIZATION ( #135, #137, #42 ) ;
#47 = CC_DESIGN_DATE_AND_TIME_ASSIGNMENT ( #98, #118, ( #160 ) ) ;
#48 = FACE_OUTER_BOUND ( 'NONE', #73, .T. ) ;
#49 = APPROVAL ( #117, 'UNSPECIFIED' ) ;
#50 = DIRECTION ( 'NONE',  ( -1.000000000000000000, 0.000000000000000000, 0.000000000000000000 ) ) ;
#51 = APPROVAL_PERSON_ORGANIZATION ( #38, #142, #166 ) ;
#52 = CARTESIAN_POINT ( 'NONE',  ( 0.000000000000000000, 0.000000000000000000, 0.5000000000000000000 ) ) ;
#53 = DIRECTION ( 'NONE',  ( 0.000000000000000000, 0.000000000000000000, 1.000000000000000000 ) ) ;
#54 =( GEOMETRIC_REPRESENTATION_CONTEXT ( 3 ) GLOBAL_UNCERTAINTY_ASSIGNED_CONTEXT ( ( #64 ) ) GLOBAL_UNIT_ASSIGNED_CONTEXT ( ( #55, #153, #168 ) ) REPRESENTATION_CONTEXT ( 'NONE', 'WORKASPACE' ) );
#55 =( LENGTH_UNIT ( ) NAMED_UNIT ( * ) SI_UNIT ( .MILLI., .METRE. ) );
#56 = DIRECTION ( 'NONE',  ( 0.000000000000000000, 0.000000000000000000, 1.000000000000000000 ) ) ;
#57 = DIRECTION ( 'NONE',  ( 1.000000000000000000, 0.000000000000000000, -0.000000000000000000 ) ) ;
#58 = MECHANICAL_CONTEXT ( 'NONE', #154, 'mechanical' ) ;
#59 = LOCAL_TIME ( 14, 26, 14.00000000000000000, #106 ) ;
#60 = CALENDAR_DATE ( 2021, 13, 9 ) ;
#61 = APPROVAL_DATE_TIME ( #146, #142 ) ;
#62 = PRODUCT_DEFINITION ( 'UNKNOWN', '', #79, #134 ) ;
#63 = CALENDAR_DATE ( 2021, 13, 9 ) ;
#64 = UNCERTAINTY_MEASURE_WITH_UNIT (LENGTH_MEASURE( 1.000000000000000082E-05 ), #55, 'distance_accuracy_value', 'NONE');
#65 = CARTESIAN_POINT ( 'NONE',  ( 4.999999999999999112, 6.123233995736765296E-16, 0.000000000000000000 ) ) ;
#66 = LOCAL_TIME ( 14, 26, 14.00000000000000000, #20 ) ;
#67 = FACE_OUTER_BOUND ( 'NONE', #136, .T. ) ;
#68 = DIRECTION ( 'NONE',  ( -0.000000000000000000, -0.000000000000000000, -1.000000000000000000 ) ) ;
#69 = PERSON_AND_ORGANIZATION_ROLE ( 'classification_officer' ) ;
#70 = ORIENTED_EDGE ( 'NONE', *, *, #34, .F. ) ;
#71 = PLANE ( 'NONE',  #44 ) ;
#72 = LOCAL_TIME ( 14, 26, 14.00000000000000000, #121 ) ;
#73 = EDGE_LOOP ( 'NONE', ( #70, #147, #139, #101 ) ) ;
#74 = CALENDAR_DATE ( 2021, 13, 9 ) ;
#75 = ORIENTED_EDGE ( 'NONE', *, *, #84, .T. ) ;
#76 = AXIS2_PLACEMENT_3D ( 'NONE', #52, #150, #37 ) ;
#77 = EDGE_LOOP ( 'NONE', ( #75, #173 ) ) ;
#78 = ADVANCED_FACE ( 'NONE', ( #48 ), #100, .T. ) ;
#79 = PRODUCT_DEFINITION_FORMATION_WITH_SPECIFIED_SOURCE ( 'ANY', '', #131, .NOT_KNOWN. ) ;
#80 = APPROVAL_DATE_TIME ( #158, #49 ) ;
#81 = CARTESIAN_POINT ( 'NONE',  ( 0.000000000000000000, 0.000000000000000000, 0.000000000000000000 ) ) ;
#82 = PERSON_AND_ORGANIZATION_ROLE ( 'creator' ) ;
#83 = CC_DESIGN_SECURITY_CLASSIFICATION ( #160, ( #79 ) ) ;
#84 = EDGE_CURVE ( 'NONE', #167, #90, #174, .T. ) ;
#85 = DIRECTION ( 'NONE',  ( 0.000000000000000000, 0.000000000000000000, 1.000000000000000000 ) ) ;
#86 = CARTESIAN_POINT ( 'NONE',  ( 0.000000000000000000, 0.000000000000000000, 0.000000000000000000 ) ) ;
#87 = CLOSED_SHELL ( 'NONE', ( #78, #3, #6, #126 ) ) ;
#88 = CC_DESIGN_DATE_AND_TIME_ASSIGNMENT ( #155, #7, ( #62 ) ) ;
#89 = PERSON_AND_ORGANIZATION ( #16, #99 ) ;
#90 = VERTEX_POINT ( 'NONE', #138 ) ;
#91 = LOCAL_TIME ( 14, 26, 14.00000000000000000, #95 ) ;
#92 = ADVANCED_BREP_SHAPE_REPRESENTATION ( 'Web Model 18463_18463', ( #123, #93 ), #54 ) ;
#93 = AXIS2_PLACEMENT_3D ( 'NONE', #81, #25, #43 ) ;
#94 = EDGE_CURVE ( 'NONE', #90, #35, #110, .T. ) ;
#95 = COORDINATED_UNIVERSAL_TIME_OFFSET ( 5, 0, .BEHIND. ) ;
#96 = CARTESIAN_POINT ( 'NONE',  ( -4.999999999999999112, 0.000000000000000000, 0.5000000000000000000 ) ) ;
#97 = PERSON_AND_ORGANIZATION_ROLE ( 'design_supplier' ) ;
#98 = DATE_AND_TIME ( #60, #91 ) ;
#99 = ORGANIZATION ( 'UNSPECIFIED', 'UNSPECIFIED', '' ) ;
#100 = CYLINDRICAL_SURFACE ( 'NONE', #76, 4.999999999999999112 ) ;
#101 = ORIENTED_EDGE ( 'NONE', *, *, #165, .F. ) ;
#102 = CC_DESIGN_PERSON_AND_ORGANIZATION_ASSIGNMENT ( #169, #82, ( #79 ) ) ;
#103 = DIRECTION ( 'NONE',  ( -0.000000000000000000, -0.000000000000000000, -1.000000000000000000 ) ) ;
#104 = AXIS2_PLACEMENT_3D ( 'NONE', #40, #21, #115 ) ;
#105 = DIRECTION ( 'NONE',  ( 1.000000000000000000, 0.000000000000000000, -0.000000000000000000 ) ) ;
#106 = COORDINATED_UNIVERSAL_TIME_OFFSET ( 5, 0, .BEHIND. ) ;
#107 = CIRCLE ( 'NONE', #45, 4.999999999999999112 ) ;
#108 = CC_DESIGN_PERSON_AND_ORGANIZATION_ASSIGNMENT ( #130, #69, ( #160 ) ) ;
#109 = FACE_OUTER_BOUND ( 'NONE', #1, .T. ) ;
#110 = LINE ( 'NONE', #122, #111 ) ;
#111 = VECTOR ( 'NONE', #68, 1000.000000000000000 ) ;
#112 = EDGE_CURVE ( 'NONE', #133, #35, #39, .T. ) ;
#113 = DIRECTION ( 'NONE',  ( 1.000000000000000000, 0.000000000000000000, 0.000000000000000000 ) ) ;
#114 = PLANE ( 'NONE',  #19 ) ;
#115 = DIRECTION ( 'NONE',  ( 1.000000000000000000, 0.000000000000000000, 0.000000000000000000 ) ) ;
#116 = ORIENTED_EDGE ( 'NONE', *, *, #165, .T. ) ;
#117 = APPROVAL_STATUS ( 'not_yet_approved' ) ;
#118 = DATE_TIME_ROLE ( 'classification_date' ) ;
#119 = APPROVAL_STATUS ( 'not_yet_approved' ) ;
#120 = CALENDAR_DATE ( 2021, 13, 9 ) ;
#121 = COORDINATED_UNIVERSAL_TIME_OFFSET ( 5, 0, .BEHIND. ) ;
#122 = CARTESIAN_POINT ( 'NONE',  ( 4.999999999999999112, 6.123233995736765296E-16, 0.5000000000000000000 ) ) ;
#123 = MANIFOLD_SOLID_BREP ( 'Boss-Extrude1', #87 ) ;
#124 = APPROVAL_DATE_TIME ( #30, #137 ) ;
#125 = CARTESIAN_POINT ( 'NONE',  ( 0.000000000000000000, 0.000000000000000000, 0.000000000000000000 ) ) ;
#126 = ADVANCED_FACE ( 'NONE', ( #67 ), #71, .F. ) ;
#127 = ORIENTED_EDGE ( 'NONE', *, *, #112, .F. ) ;
#128 = PERSON_AND_ORGANIZATION_ROLE ( 'creator' ) ;
#129 = AXIS2_PLACEMENT_3D ( 'NONE', #4, #103, #50 ) ;
#130 = PERSON_AND_ORGANIZATION ( #16, #99 ) ;
#131 = PRODUCT ( 'Web Model 18463_18463', 'Web Model 18463_18463', '', ( #58 ) ) ;
#132 = AXIS2_PLACEMENT_3D ( 'NONE', #86, #56, #143 ) ;
#133 = VERTEX_POINT ( 'NONE', #164 ) ;
#134 = DESIGN_CONTEXT ( 'detailed design', #15, 'design' ) ;
#135 = PERSON_AND_ORGANIZATION ( #16, #99 ) ;
#136 = EDGE_LOOP ( 'NONE', ( #127, #159 ) ) ;
#137 = APPROVAL ( #12, 'UNSPECIFIED' ) ;
#138 = CARTESIAN_POINT ( 'NONE',  ( 4.999999999999999112, 6.123233995736765296E-16, 0.5000000000000000000 ) ) ;
#139 = ORIENTED_EDGE ( 'NONE', *, *, #23, .T. ) ;
#140 = CARTESIAN_POINT ( 'NONE',  ( 0.000000000000000000, 0.000000000000000000, 0.5000000000000000000 ) ) ;
#141 = ORIENTED_EDGE ( 'NONE', *, *, #112, .T. ) ;
#142 = APPROVAL ( #119, 'UNSPECIFIED' ) ;
#143 = DIRECTION ( 'NONE',  ( 1.000000000000000000, 0.000000000000000000, 0.000000000000000000 ) ) ;
#144 = CIRCLE ( 'NONE', #13, 4.999999999999999112 ) ;
#145 = APPROVAL_ROLE ( '' ) ;
#146 = DATE_AND_TIME ( #17, #66 ) ;
#147 = ORIENTED_EDGE ( 'NONE', *, *, #94, .T. ) ;
#148 = FACE_OUTER_BOUND ( 'NONE', #77, .T. ) ;
#149 = CC_DESIGN_APPROVAL ( #142, ( #62 ) ) ;
#150 = DIRECTION ( 'NONE',  ( -0.000000000000000000, -0.000000000000000000, -1.000000000000000000 ) ) ;
#151 = CARTESIAN_POINT ( 'NONE',  ( 0.000000000000000000, 0.000000000000000000, 0.5000000000000000000 ) ) ;
#152 = PERSON_AND_ORGANIZATION ( #16, #99 ) ;
#153 =( NAMED_UNIT ( * ) PLANE_ANGLE_UNIT ( ) SI_UNIT ( $, .RADIAN. ) );
#154 = APPLICATION_CONTEXT ( 'configuration controlled 3d designs of mechanical parts and assemblies' ) ;
#155 = DATE_AND_TIME ( #63, #175 ) ;
#156 = APPROVAL_PERSON_ORGANIZATION ( #152, #49, #145 ) ;
#157 = CC_DESIGN_PERSON_AND_ORGANIZATION_ASSIGNMENT ( #32, #97, ( #79 ) ) ;
#158 = DATE_AND_TIME ( #74, #72 ) ;
#159 = ORIENTED_EDGE ( 'NONE', *, *, #23, .F. ) ;
#160 = SECURITY_CLASSIFICATION ( '', '', #41 ) ;
#161 = DIRECTION ( 'NONE',  ( 0.000000000000000000, 0.000000000000000000, 1.000000000000000000 ) ) ;
#162 = PRODUCT_DEFINITION_SHAPE ( 'NONE', 'NONE',  #62 ) ;
#163 = DIRECTION ( 'NONE',  ( 1.000000000000000000, 0.000000000000000000, 0.000000000000000000 ) ) ;
#164 = CARTESIAN_POINT ( 'NONE',  ( -4.999999999999999112, 0.000000000000000000, 0.000000000000000000 ) ) ;
#165 = EDGE_CURVE ( 'NONE', #167, #133, #8, .T. ) ;
#166 = APPROVAL_ROLE ( '' ) ;
#167 = VERTEX_POINT ( 'NONE', #26 ) ;
#168 =( NAMED_UNIT ( * ) SI_UNIT ( $, .STERADIAN. ) SOLID_ANGLE_UNIT ( ) );
#169 = PERSON_AND_ORGANIZATION ( #16, #99 ) ;
#170 = DIRECTION ( 'NONE',  ( -0.000000000000000000, -0.000000000000000000, -1.000000000000000000 ) ) ;
#171 = PERSON_AND_ORGANIZATION ( #16, #99 ) ;
#172 = CC_DESIGN_APPROVAL ( #49, ( #79 ) ) ;
#173 = ORIENTED_EDGE ( 'NONE', *, *, #34, .T. ) ;
#174 = CIRCLE ( 'NONE', #104, 4.999999999999999112 ) ;
#175 = LOCAL_TIME ( 14, 26, 14.00000000000000000, #22 ) ;
ENDSEC;
END-ISO-10303-21;
