ISO-10303-21;
HEADER;
FILE_DESCRIPTION (( 'STEP AP203' ),
    '1' );
FILE_NAME ('Web Model 11876_11888.step',
    '2019-01-02T18:26:04',
    ( '' ),
    ( '' ),
    'SwSTEP 2.0',
    'SolidWorks 2016',
    '' );
FILE_SCHEMA (( 'CONFIG_CONTROL_DESIGN' ));
ENDSEC;

DATA;
#1 = VECTOR ( 'NONE', #215, 1000.000000000000000 ) ;
#2 = AXIS2_PLACEMENT_3D ( 'NONE', #180, #182, #53 ) ;
#3 = VECTOR ( 'NONE', #5, 1000.000000000000000 ) ;
#4 = AXIS2_PLACEMENT_3D ( 'NONE', #115, #169, #72 ) ;
#5 = DIRECTION ( 'NONE',  ( -1.000000000000000000, -0.0000000000000000000, -0.0000000000000000000 ) ) ;
#6 = LOCAL_TIME ( 13, 26, 3.000000000000000000, #43 ) ;
#7 = VECTOR ( 'NONE', #48, 1000.000000000000000 ) ;
#8 = PLANE ( 'NONE',  #4 ) ;
#9 = LOCAL_TIME ( 13, 26, 3.000000000000000000, #70 ) ;
#10 = CARTESIAN_POINT ( 'NONE',  ( -0.5000000000000000000, 1.527746881936323400E-015, 12.45000000000000300 ) ) ;
#11 = AXIS2_PLACEMENT_3D ( 'NONE', #197, #75, #30 ) ;
#12 = DIRECTION ( 'NONE',  ( -1.000000000000000000, 0.0000000000000000000, 0.0000000000000000000 ) ) ;
#13 = DIRECTION ( 'NONE',  ( 0.0000000000000000000, 0.0000000000000000000, -1.000000000000000000 ) ) ;
#14 = ORIENTED_EDGE ( 'NONE', *, *, #49, .F. ) ;
#15 = EDGE_LOOP ( 'NONE', ( #171, #199, #184, #165 ) ) ;
#16 = CARTESIAN_POINT ( 'NONE',  ( 0.5000000000000000000, 0.0000000000000000000, 12.45000000000000300 ) ) ;
#17 = CARTESIAN_POINT ( 'NONE',  ( 0.5000000000000000000, 0.0000000000000000000, 0.0000000000000000000 ) ) ;
#18 = CALENDAR_DATE ( 2019, 2, 1 ) ;
#19 = LINE ( 'NONE', #238, #7 ) ;
#20 = CC_DESIGN_PERSON_AND_ORGANIZATION_ASSIGNMENT ( #54, #134, ( #160 ) ) ;
#21 = PERSON_AND_ORGANIZATION_ROLE ( 'creator' ) ;
#22 = AXIS2_PLACEMENT_3D ( 'NONE', #17, #102, #136 ) ;
#23 = PERSON_AND_ORGANIZATION ( #141, #132 ) ;
#24 = CIRCLE ( 'NONE', #229, 12.50000000000000000 ) ;
#25 = ADVANCED_FACE ( 'NONE', ( #261 ), #189, .T. ) ;
#26 = LOCAL_TIME ( 13, 26, 3.000000000000000000, #233 ) ;
#27 = ORIENTED_EDGE ( 'NONE', *, *, #250, .T. ) ;
#28 = DIRECTION ( 'NONE',  ( 0.0000000000000000000, 0.0000000000000000000, -1.000000000000000000 ) ) ;
#29 = PRODUCT_RELATED_PRODUCT_CATEGORY ( 'detail', '', ( #76 ) ) ;
#30 = DIRECTION ( 'NONE',  ( 0.0000000000000000000, 0.0000000000000000000, 1.000000000000000000 ) ) ;
#31 = DIRECTION ( 'NONE',  ( 0.0000000000000000000, 0.0000000000000000000, -1.000000000000000000 ) ) ;
#32 = DESIGN_CONTEXT ( 'detailed design', #175, 'design' ) ;
#33 = DIRECTION ( 'NONE',  ( -1.000000000000000000, -0.0000000000000000000, -0.0000000000000000000 ) ) ;
#34 = LOCAL_TIME ( 13, 26, 3.000000000000000000, #222 ) ;
#35 = AXIS2_PLACEMENT_3D ( 'NONE', #243, #79, #224 ) ;
#36 = VERTEX_POINT ( 'NONE', #89 ) ;
#37 =( LENGTH_UNIT ( ) NAMED_UNIT ( * ) SI_UNIT ( .MILLI., .METRE. ) );
#38 = DIRECTION ( 'NONE',  ( 0.0000000000000000000, 0.0000000000000000000, -1.000000000000000000 ) ) ;
#39 = APPROVAL_ROLE ( '' ) ;
#40 = EDGE_CURVE ( 'NONE', #135, #210, #273, .T. ) ;
#41 = VERTEX_POINT ( 'NONE', #191 ) ;
#42 = ADVANCED_FACE ( 'NONE', ( #125 ), #219, .T. ) ;
#43 = COORDINATED_UNIVERSAL_TIME_OFFSET ( 5, 0, .BEHIND. ) ;
#44 = CC_DESIGN_PERSON_AND_ORGANIZATION_ASSIGNMENT ( #81, #103, ( #76 ) ) ;
#45 = DIRECTION ( 'NONE',  ( -0.7071067811865107100, 0.0000000000000000000, 0.7071067811865843200 ) ) ;
#46 = ORIENTED_EDGE ( 'NONE', *, *, #40, .F. ) ;
#47 = PRODUCT_DEFINITION ( 'UNKNOWN', '', #160, #32 ) ;
#48 = DIRECTION ( 'NONE',  ( -0.7071067811865107100, 8.659560562355384000E-017, -0.7071067811865843200 ) ) ;
#49 = EDGE_CURVE ( 'NONE', #186, #36, #119, .T. ) ;
#50 = LINE ( 'NONE', #173, #1 ) ;
#51 = CARTESIAN_POINT ( 'NONE',  ( 0.5000000000000000000, 0.0000000000000000000, 12.45000000000000300 ) ) ;
#52 = MECHANICAL_CONTEXT ( 'NONE', #202, 'mechanical' ) ;
#53 = DIRECTION ( 'NONE',  ( 0.0000000000000000000, 0.0000000000000000000, -1.000000000000000000 ) ) ;
#54 = PERSON_AND_ORGANIZATION ( #141, #132 ) ;
#55 = EDGE_CURVE ( 'NONE', #41, #240, #226, .T. ) ;
#56 = FACE_OUTER_BOUND ( 'NONE', #15, .T. ) ;
#57 = APPROVAL_ROLE ( '' ) ;
#58 = ORIENTED_EDGE ( 'NONE', *, *, #225, .T. ) ;
#59 = AXIS2_PLACEMENT_3D ( 'NONE', #217, #130, #264 ) ;
#60 = APPROVAL_ROLE ( '' ) ;
#61 = VECTOR ( 'NONE', #150, 1000.000000000000000 ) ;
#62 = EDGE_CURVE ( 'NONE', #95, #65, #105, .T. ) ;
#63 = PRODUCT_DEFINITION_SHAPE ( 'NONE', 'NONE',  #47 ) ;
#64 = ADVANCED_FACE ( 'NONE', ( #223 ), #73, .T. ) ;
#65 = VERTEX_POINT ( 'NONE', #194 ) ;
#66 = ORIENTED_EDGE ( 'NONE', *, *, #143, .T. ) ;
#67 = EDGE_CURVE ( 'NONE', #210, #135, #178, .T. ) ;
#68 = PERSON_AND_ORGANIZATION ( #141, #132 ) ;
#69 = LINE ( 'NONE', #170, #61 ) ;
#70 = COORDINATED_UNIVERSAL_TIME_OFFSET ( 5, 0, .BEHIND. ) ;
#71 = CARTESIAN_POINT ( 'NONE',  ( 0.5000000000000000000, 0.0000000000000000000, 0.0000000000000000000 ) ) ;
#72 = DIRECTION ( 'NONE',  ( 0.0000000000000000000, 0.0000000000000000000, -1.000000000000000000 ) ) ;
#73 = CYLINDRICAL_SURFACE ( 'NONE', #275, 12.50000000000000000 ) ;
#74 = DIRECTION ( 'NONE',  ( -1.000000000000000000, -0.0000000000000000000, -0.0000000000000000000 ) ) ;
#75 = DIRECTION ( 'NONE',  ( -1.000000000000000000, -0.0000000000000000000, -0.0000000000000000000 ) ) ;
#76 = PRODUCT ( 'Web Model 11876_11888', 'Web Model 11876_11888', '', ( #52 ) ) ;
#77 = AXIS2_PLACEMENT_3D ( 'NONE', #248, #155, #272 ) ;
#78 = DATE_AND_TIME ( #161, #34 ) ;
#79 = DIRECTION ( 'NONE',  ( 0.0000000000000000000, 0.0000000000000000000, 1.000000000000000000 ) ) ;
#80 = CC_DESIGN_PERSON_AND_ORGANIZATION_ASSIGNMENT ( #90, #21, ( #47 ) ) ;
#81 = PERSON_AND_ORGANIZATION ( #141, #132 ) ;
#82 = EDGE_LOOP ( 'NONE', ( #127, #110 ) ) ;
#83 = MANIFOLD_SOLID_BREP ( 'Chamfer1', #101 ) ;
#84 = EDGE_CURVE ( 'NONE', #210, #65, #69, .T. ) ;
#85 = ORIENTED_EDGE ( 'NONE', *, *, #49, .T. ) ;
#86 = ADVANCED_BREP_SHAPE_REPRESENTATION ( 'Web Model 11876_11888', ( #83, #35 ), #181 ) ;
#87 = EDGE_CURVE ( 'NONE', #41, #95, #24, .T. ) ;
#88 = CONICAL_SURFACE ( 'NONE', #22, 12.45000000000000300, 0.7853981633975003500 ) ;
#89 = CARTESIAN_POINT ( 'NONE',  ( 0.5000000000000000000, 1.527746881936323400E-015, -12.45000000000000300 ) ) ;
#90 = PERSON_AND_ORGANIZATION ( #141, #132 ) ;
#91 = APPROVAL ( #157, 'UNSPECIFIED' ) ;
#92 = CARTESIAN_POINT ( 'NONE',  ( -0.4500000000000002900, 0.0000000000000000000, 0.0000000000000000000 ) ) ;
#93 = DIRECTION ( 'NONE',  ( 0.0000000000000000000, 0.0000000000000000000, -1.000000000000000000 ) ) ;
#94 = CIRCLE ( 'NONE', #99, 12.50000000000000000 ) ;
#95 = VERTEX_POINT ( 'NONE', #267 ) ;
#96 = EDGE_CURVE ( 'NONE', #36, #95, #19, .T. ) ;
#97 = CARTESIAN_POINT ( 'NONE',  ( -0.5000000000000000000, 0.0000000000000000000, 0.0000000000000000000 ) ) ;
#98 = DIRECTION ( 'NONE',  ( -1.000000000000000000, 0.0000000000000000000, 0.0000000000000000000 ) ) ;
#99 = AXIS2_PLACEMENT_3D ( 'NONE', #121, #138, #137 ) ;
#100 = APPROVAL_DATE_TIME ( #185, #220 ) ;
#101 = CLOSED_SHELL ( 'NONE', ( #255, #254, #64, #231, #25, #162, #42, #259 ) ) ;
#102 = DIRECTION ( 'NONE',  ( -1.000000000000000000, 0.0000000000000000000, 0.0000000000000000000 ) ) ;
#103 = PERSON_AND_ORGANIZATION_ROLE ( 'design_owner' ) ;
#104 = AXIS2_PLACEMENT_3D ( 'NONE', #216, #196, #131 ) ;
#105 = LINE ( 'NONE', #232, #3 ) ;
#106 = ORIENTED_EDGE ( 'NONE', *, *, #55, .F. ) ;
#107 = CC_DESIGN_APPROVAL ( #220, ( #160 ) ) ;
#108 = VECTOR ( 'NONE', #45, 1000.000000000000000 ) ;
#109 = AXIS2_PLACEMENT_3D ( 'NONE', #212, #258, #28 ) ;
#110 = ORIENTED_EDGE ( 'NONE', *, *, #40, .T. ) ;
#111 = PERSON_AND_ORGANIZATION ( #141, #132 ) ;
#112 = ORIENTED_EDGE ( 'NONE', *, *, #62, .T. ) ;
#113 = AXIS2_PLACEMENT_3D ( 'NONE', #71, #235, #93 ) ;
#114 = DIRECTION ( 'NONE',  ( -1.000000000000000000, -0.0000000000000000000, -0.0000000000000000000 ) ) ;
#115 = CARTESIAN_POINT ( 'NONE',  ( -0.5000000000000000000, 0.0000000000000000000, 0.0000000000000000000 ) ) ;
#116 = ORIENTED_EDGE ( 'NONE', *, *, #62, .F. ) ;
#117 = APPROVAL_STATUS ( 'not_yet_approved' ) ;
#118 = CC_DESIGN_PERSON_AND_ORGANIZATION_ASSIGNMENT ( #111, #270, ( #160 ) ) ;
#119 = CIRCLE ( 'NONE', #113, 12.45000000000000300 ) ;
#120 = DATE_TIME_ROLE ( 'creation_date' ) ;
#121 = CARTESIAN_POINT ( 'NONE',  ( -0.4500000000000002900, 0.0000000000000000000, 0.0000000000000000000 ) ) ;
#122 = ORIENTED_EDGE ( 'NONE', *, *, #262, .F. ) ;
#123 = ORIENTED_EDGE ( 'NONE', *, *, #262, .T. ) ;
#124 = PERSON_AND_ORGANIZATION ( #141, #132 ) ;
#125 = FACE_OUTER_BOUND ( 'NONE', #144, .T. ) ;
#126 = CIRCLE ( 'NONE', #208, 12.50000000000000000 ) ;
#127 = ORIENTED_EDGE ( 'NONE', *, *, #67, .T. ) ;
#128 = DATE_AND_TIME ( #192, #198 ) ;
#129 = SECURITY_CLASSIFICATION ( '', '', #200 ) ;
#130 = DIRECTION ( 'NONE',  ( -1.000000000000000000, -0.0000000000000000000, -0.0000000000000000000 ) ) ;
#131 = DIRECTION ( 'NONE',  ( 0.0000000000000000000, 0.0000000000000000000, 1.000000000000000000 ) ) ;
#132 = ORGANIZATION ( 'UNSPECIFIED', 'UNSPECIFIED', '' ) ;
#133 = CC_DESIGN_DATE_AND_TIME_ASSIGNMENT ( #78, #120, ( #47 ) ) ;
#134 = PERSON_AND_ORGANIZATION_ROLE ( 'design_supplier' ) ;
#135 = VERTEX_POINT ( 'NONE', #10 ) ;
#136 = DIRECTION ( 'NONE',  ( 0.0000000000000000000, 0.0000000000000000000, 1.000000000000000000 ) ) ;
#137 = DIRECTION ( 'NONE',  ( 0.0000000000000000000, 0.0000000000000000000, -1.000000000000000000 ) ) ;
#138 = DIRECTION ( 'NONE',  ( 1.000000000000000000, -0.0000000000000000000, -0.0000000000000000000 ) ) ;
#139 = FACE_OUTER_BOUND ( 'NONE', #245, .T. ) ;
#140 = EDGE_LOOP ( 'NONE', ( #85, #123 ) ) ;
#141 = PERSON ( 'UNSPECIFIED', 'UNSPECIFIED', 'UNSPECIFIED', ('UNSPECIFIED'), ('UNSPECIFIED'), ('UNSPECIFIED') ) ;
#142 = CC_DESIGN_PERSON_AND_ORGANIZATION_ASSIGNMENT ( #268, #249, ( #129 ) ) ;
#143 = EDGE_CURVE ( 'NONE', #95, #41, #158, .T. ) ;
#144 = EDGE_LOOP ( 'NONE', ( #265, #14, #167, #193 ) ) ;
#145 = AXIS2_PLACEMENT_3D ( 'NONE', #153, #176, #38 ) ;
#146 = FACE_OUTER_BOUND ( 'NONE', #214, .T. ) ;
#147 = CARTESIAN_POINT ( 'NONE',  ( -0.5000000000000000000, 0.0000000000000000000, -12.45000000000000300 ) ) ;
#148 = DATE_AND_TIME ( #211, #9 ) ;
#149 = CARTESIAN_POINT ( 'NONE',  ( 0.4500000000000072300, 0.0000000000000000000, 0.0000000000000000000 ) ) ;
#150 = DIRECTION ( 'NONE',  ( 0.7071067811865597900, 0.0000000000000000000, -0.7071067811865352500 ) ) ;
#151 = CYLINDRICAL_SURFACE ( 'NONE', #11, 12.50000000000000000 ) ;
#152 = ORIENTED_EDGE ( 'NONE', *, *, #87, .F. ) ;
#153 = CARTESIAN_POINT ( 'NONE',  ( -0.4500000000000002900, 0.0000000000000000000, 0.0000000000000000000 ) ) ;
#154 = CC_DESIGN_DATE_AND_TIME_ASSIGNMENT ( #128, #253, ( #129 ) ) ;
#155 = DIRECTION ( 'NONE',  ( 1.000000000000000000, 0.0000000000000000000, 0.0000000000000000000 ) ) ;
#156 = APPLICATION_PROTOCOL_DEFINITION ( 'international standard', 'config_control_design', 1994, #202 ) ;
#157 = APPROVAL_STATUS ( 'not_yet_approved' ) ;
#158 = CIRCLE ( 'NONE', #271, 12.50000000000000000 ) ;
#159 = EDGE_LOOP ( 'NONE', ( #122, #256, #152, #234 ) ) ;
#160 = PRODUCT_DEFINITION_FORMATION_WITH_SPECIFIED_SOURCE ( 'ANY', '', #76, .NOT_KNOWN. ) ;
#161 = CALENDAR_DATE ( 2019, 2, 1 ) ;
#162 = ADVANCED_FACE ( 'NONE', ( #163 ), #8, .F. ) ;
#163 = FACE_OUTER_BOUND ( 'NONE', #82, .T. ) ;
#164 = EDGE_CURVE ( 'NONE', #135, #240, #50, .T. ) ;
#165 = ORIENTED_EDGE ( 'NONE', *, *, #250, .F. ) ;
#166 = APPROVAL ( #207, 'UNSPECIFIED' ) ;
#167 = ORIENTED_EDGE ( 'NONE', *, *, #237, .T. ) ;
#168 = DIRECTION ( 'NONE',  ( 0.0000000000000000000, 0.0000000000000000000, -1.000000000000000000 ) ) ;
#169 = DIRECTION ( 'NONE',  ( 1.000000000000000000, 0.0000000000000000000, 0.0000000000000000000 ) ) ;
#170 = CARTESIAN_POINT ( 'NONE',  ( -0.4500000000000002900, 0.0000000000000000000, -12.50000000000000000 ) ) ;
#171 = ORIENTED_EDGE ( 'NONE', *, *, #164, .F. ) ;
#172 = DIRECTION ( 'NONE',  ( 0.0000000000000000000, 0.0000000000000000000, -1.000000000000000000 ) ) ;
#173 = CARTESIAN_POINT ( 'NONE',  ( -0.4500000000000002900, 1.530808498934191500E-015, 12.50000000000000000 ) ) ;
#174 = CC_DESIGN_APPROVAL ( #91, ( #47 ) ) ;
#175 = APPLICATION_CONTEXT ( 'configuration controlled 3d designs of mechanical parts and assemblies' ) ;
#176 = DIRECTION ( 'NONE',  ( 1.000000000000000000, -0.0000000000000000000, -0.0000000000000000000 ) ) ;
#177 = APPROVAL_PERSON_ORGANIZATION ( #68, #91, #39 ) ;
#178 = CIRCLE ( 'NONE', #59, 12.45000000000000300 ) ;
#179 =( NAMED_UNIT ( * ) PLANE_ANGLE_UNIT ( ) SI_UNIT ( $, .RADIAN. ) );
#180 = CARTESIAN_POINT ( 'NONE',  ( -0.4500000000000002900, 0.0000000000000000000, 0.0000000000000000000 ) ) ;
#181 =( GEOMETRIC_REPRESENTATION_CONTEXT ( 3 ) GLOBAL_UNCERTAINTY_ASSIGNED_CONTEXT ( ( #205 ) ) GLOBAL_UNIT_ASSIGNED_CONTEXT ( ( #37, #179, #274 ) ) REPRESENTATION_CONTEXT ( 'NONE', 'WORKASPACE' ) );
#182 = DIRECTION ( 'NONE',  ( 1.000000000000000000, -0.0000000000000000000, -0.0000000000000000000 ) ) ;
#183 = CONICAL_SURFACE ( 'NONE', #2, 12.50000000000000000, 0.7853981633974309600 ) ;
#184 = ORIENTED_EDGE ( 'NONE', *, *, #84, .T. ) ;
#185 = DATE_AND_TIME ( #244, #26 ) ;
#186 = VERTEX_POINT ( 'NONE', #16 ) ;
#187 = CC_DESIGN_APPROVAL ( #166, ( #129 ) ) ;
#188 = SHAPE_DEFINITION_REPRESENTATION ( #63, #86 ) ;
#189 = PLANE ( 'NONE',  #109 ) ;
#190 = AXIS2_PLACEMENT_3D ( 'NONE', #97, #33, #31 ) ;
#191 = CARTESIAN_POINT ( 'NONE',  ( 0.4500000000000072300, 0.0000000000000000000, 12.50000000000000000 ) ) ;
#192 = CALENDAR_DATE ( 2019, 2, 1 ) ;
#193 = ORIENTED_EDGE ( 'NONE', *, *, #143, .F. ) ;
#194 = CARTESIAN_POINT ( 'NONE',  ( -0.4500000000000002900, 1.530808498934191500E-015, -12.50000000000000000 ) ) ;
#195 = CIRCLE ( 'NONE', #77, 12.45000000000000300 ) ;
#196 = DIRECTION ( 'NONE',  ( -1.000000000000000000, 0.0000000000000000000, 0.0000000000000000000 ) ) ;
#197 = CARTESIAN_POINT ( 'NONE',  ( 0.5000000000000000000, 0.0000000000000000000, 0.0000000000000000000 ) ) ;
#198 = LOCAL_TIME ( 13, 26, 3.000000000000000000, #206 ) ;
#199 = ORIENTED_EDGE ( 'NONE', *, *, #67, .F. ) ;
#200 = SECURITY_CLASSIFICATION_LEVEL ( 'unclassified' ) ;
#201 = CC_DESIGN_SECURITY_CLASSIFICATION ( #129, ( #160 ) ) ;
#202 = APPLICATION_CONTEXT ( 'configuration controlled 3d designs of mechanical parts and assemblies' ) ;
#203 = CONICAL_SURFACE ( 'NONE', #145, 12.50000000000000000, 0.7853981633974309600 ) ;
#204 = ORIENTED_EDGE ( 'NONE', *, *, #55, .T. ) ;
#205 = UNCERTAINTY_MEASURE_WITH_UNIT (LENGTH_MEASURE( 1.000000000000000100E-005 ), #37, 'distance_accuracy_value', 'NONE');
#206 = COORDINATED_UNIVERSAL_TIME_OFFSET ( 5, 0, .BEHIND. ) ;
#207 = APPROVAL_STATUS ( 'not_yet_approved' ) ;
#208 = AXIS2_PLACEMENT_3D ( 'NONE', #92, #263, #168 ) ;
#209 = EDGE_LOOP ( 'NONE', ( #227, #112, #58, #106 ) ) ;
#210 = VERTEX_POINT ( 'NONE', #147 ) ;
#211 = CALENDAR_DATE ( 2019, 2, 1 ) ;
#212 = CARTESIAN_POINT ( 'NONE',  ( 0.5000000000000000000, 0.0000000000000000000, 0.0000000000000000000 ) ) ;
#213 = FACE_OUTER_BOUND ( 'NONE', #159, .T. ) ;
#214 = EDGE_LOOP ( 'NONE', ( #46, #252, #266, #269 ) ) ;
#215 = DIRECTION ( 'NONE',  ( 0.7071067811865597900, 8.659560562354782500E-017, 0.7071067811865352500 ) ) ;
#216 = CARTESIAN_POINT ( 'NONE',  ( 0.5000000000000000000, 0.0000000000000000000, 0.0000000000000000000 ) ) ;
#217 = CARTESIAN_POINT ( 'NONE',  ( -0.5000000000000000000, 0.0000000000000000000, 0.0000000000000000000 ) ) ;
#218 = DIRECTION ( 'NONE',  ( 0.0000000000000000000, 0.0000000000000000000, 1.000000000000000000 ) ) ;
#219 = CONICAL_SURFACE ( 'NONE', #104, 12.45000000000000300, 0.7853981633975003500 ) ;
#220 = APPROVAL ( #117, 'UNSPECIFIED' ) ;
#221 = CARTESIAN_POINT ( 'NONE',  ( -0.4500000000000002900, 0.0000000000000000000, 12.50000000000000000 ) ) ;
#222 = COORDINATED_UNIVERSAL_TIME_OFFSET ( 5, 0, .BEHIND. ) ;
#223 = FACE_OUTER_BOUND ( 'NONE', #209, .T. ) ;
#224 = DIRECTION ( 'NONE',  ( 1.000000000000000000, 0.0000000000000000000, 0.0000000000000000000 ) ) ;
#225 = EDGE_CURVE ( 'NONE', #65, #240, #126, .T. ) ;
#226 = LINE ( 'NONE', #241, #230 ) ;
#227 = ORIENTED_EDGE ( 'NONE', *, *, #87, .T. ) ;
#228 = APPROVAL_DATE_TIME ( #260, #91 ) ;
#229 = AXIS2_PLACEMENT_3D ( 'NONE', #149, #98, #13 ) ;
#230 = VECTOR ( 'NONE', #74, 1000.000000000000000 ) ;
#231 = ADVANCED_FACE ( 'NONE', ( #139 ), #151, .T. ) ;
#232 = CARTESIAN_POINT ( 'NONE',  ( 0.5000000000000000000, 1.530808498934191500E-015, -12.50000000000000000 ) ) ;
#233 = COORDINATED_UNIVERSAL_TIME_OFFSET ( 5, 0, .BEHIND. ) ;
#234 = ORIENTED_EDGE ( 'NONE', *, *, #237, .F. ) ;
#235 = DIRECTION ( 'NONE',  ( 1.000000000000000000, 0.0000000000000000000, 0.0000000000000000000 ) ) ;
#236 = CARTESIAN_POINT ( 'NONE',  ( 0.5000000000000000000, 0.0000000000000000000, 0.0000000000000000000 ) ) ;
#237 = EDGE_CURVE ( 'NONE', #186, #41, #239, .T. ) ;
#238 = CARTESIAN_POINT ( 'NONE',  ( 0.5000000000000000000, 1.524685264938455200E-015, -12.45000000000000300 ) ) ;
#239 = LINE ( 'NONE', #51, #108 ) ;
#240 = VERTEX_POINT ( 'NONE', #221 ) ;
#241 = CARTESIAN_POINT ( 'NONE',  ( 0.5000000000000000000, 0.0000000000000000000, 12.50000000000000000 ) ) ;
#242 = CARTESIAN_POINT ( 'NONE',  ( 0.4500000000000072300, 0.0000000000000000000, 0.0000000000000000000 ) ) ;
#243 = CARTESIAN_POINT ( 'NONE',  ( 0.0000000000000000000, 0.0000000000000000000, 0.0000000000000000000 ) ) ;
#244 = CALENDAR_DATE ( 2019, 2, 1 ) ;
#245 = EDGE_LOOP ( 'NONE', ( #116, #66, #204, #27 ) ) ;
#246 = APPROVAL_PERSON_ORGANIZATION ( #124, #166, #60 ) ;
#247 = APPLICATION_PROTOCOL_DEFINITION ( 'international standard', 'config_control_design', 1994, #175 ) ;
#248 = CARTESIAN_POINT ( 'NONE',  ( 0.5000000000000000000, 0.0000000000000000000, 0.0000000000000000000 ) ) ;
#249 = PERSON_AND_ORGANIZATION_ROLE ( 'classification_officer' ) ;
#250 = EDGE_CURVE ( 'NONE', #240, #65, #94, .T. ) ;
#251 = APPROVAL_PERSON_ORGANIZATION ( #23, #220, #57 ) ;
#252 = ORIENTED_EDGE ( 'NONE', *, *, #164, .T. ) ;
#253 = DATE_TIME_ROLE ( 'classification_date' ) ;
#254 = ADVANCED_FACE ( 'NONE', ( #213 ), #88, .T. ) ;
#255 = ADVANCED_FACE ( 'NONE', ( #146 ), #203, .T. ) ;
#256 = ORIENTED_EDGE ( 'NONE', *, *, #96, .T. ) ;
#257 = APPROVAL_DATE_TIME ( #148, #166 ) ;
#258 = DIRECTION ( 'NONE',  ( 1.000000000000000000, 0.0000000000000000000, 0.0000000000000000000 ) ) ;
#259 = ADVANCED_FACE ( 'NONE', ( #56 ), #183, .T. ) ;
#260 = DATE_AND_TIME ( #18, #6 ) ;
#261 = FACE_OUTER_BOUND ( 'NONE', #140, .T. ) ;
#262 = EDGE_CURVE ( 'NONE', #36, #186, #195, .T. ) ;
#263 = DIRECTION ( 'NONE',  ( 1.000000000000000000, -0.0000000000000000000, -0.0000000000000000000 ) ) ;
#264 = DIRECTION ( 'NONE',  ( 0.0000000000000000000, 0.0000000000000000000, -1.000000000000000000 ) ) ;
#265 = ORIENTED_EDGE ( 'NONE', *, *, #96, .F. ) ;
#266 = ORIENTED_EDGE ( 'NONE', *, *, #225, .F. ) ;
#267 = CARTESIAN_POINT ( 'NONE',  ( 0.4500000000000072300, 1.530808498934191500E-015, -12.50000000000000000 ) ) ;
#268 = PERSON_AND_ORGANIZATION ( #141, #132 ) ;
#269 = ORIENTED_EDGE ( 'NONE', *, *, #84, .F. ) ;
#270 = PERSON_AND_ORGANIZATION_ROLE ( 'creator' ) ;
#271 = AXIS2_PLACEMENT_3D ( 'NONE', #242, #12, #172 ) ;
#272 = DIRECTION ( 'NONE',  ( 0.0000000000000000000, 0.0000000000000000000, -1.000000000000000000 ) ) ;
#273 = CIRCLE ( 'NONE', #190, 12.45000000000000300 ) ;
#274 =( NAMED_UNIT ( * ) SI_UNIT ( $, .STERADIAN. ) SOLID_ANGLE_UNIT ( ) );
#275 = AXIS2_PLACEMENT_3D ( 'NONE', #236, #114, #218 ) ;
ENDSEC;
END-ISO-10303-21;
