ISO-10303-21;
HEADER;
FILE_DESCRIPTION (( 'STEP AP203' ),
    '1' );
FILE_NAME ('Web Model 12451_12458.step',
    '2019-11-01T14:39:25',
    ( '' ),
    ( '' ),
    'SwSTEP 2.0',
    'SolidWorks 2018',
    '' );
FILE_SCHEMA (( 'CONFIG_CONTROL_DESIGN' ));
ENDSEC;

DATA;
#1 = DIRECTION ( 'NONE',  ( 0.0000000000000000000, 0.0000000000000000000, -1.000000000000000000 ) ) ;
#2 = AXIS2_PLACEMENT_3D ( 'NONE', #171, #150, #158 ) ;
#3 = ORIENTED_EDGE ( 'NONE', *, *, #42, .F. ) ;
#4 = EDGE_CURVE ( 'NONE', #100, #128, #36, .T. ) ;
#5 = CARTESIAN_POINT ( 'NONE',  ( -0.8000000000000000444, 0.0000000000000000000, 0.0000000000000000000 ) ) ;
#6 = EDGE_CURVE ( 'NONE', #100, #166, #127, .T. ) ;
#7 = CARTESIAN_POINT ( 'NONE',  ( 0.8000000000000000444, 0.0000000000000000000, 0.0000000000000000000 ) ) ;
#8 = FACE_OUTER_BOUND ( 'NONE', #23, .T. ) ;
#9 = AXIS2_PLACEMENT_3D ( 'NONE', #87, #175, #66 ) ;
#10 = CARTESIAN_POINT ( 'NONE',  ( -0.8000000000000000444, 0.0000000000000000000, 0.0000000000000000000 ) ) ;
#11 = CC_DESIGN_DATE_AND_TIME_ASSIGNMENT ( #172, #95, ( #145 ) ) ;
#12 = ADVANCED_FACE ( 'NONE', ( #8 ), #88, .T. ) ;
#13 = CARTESIAN_POINT ( 'NONE',  ( 0.8000000000000000444, 0.0000000000000000000, 6.250000000000000000 ) ) ;
#14 = ADVANCED_BREP_SHAPE_REPRESENTATION ( 'Web Model 12451_12458', ( #122, #125 ), #50 ) ;
#15 = EDGE_CURVE ( 'NONE', #128, #170, #73, .T. ) ;
#16 = PERSON_AND_ORGANIZATION ( #75, #106 ) ;
#17 = LOCAL_TIME ( 10, 39, 25.00000000000000000, #53 ) ;
#18 = PERSON_AND_ORGANIZATION_ROLE ( 'design_supplier' ) ;
#19 = AXIS2_PLACEMENT_3D ( 'NONE', #174, #115, #25 ) ;
#20 = LOCAL_TIME ( 10, 39, 25.00000000000000000, #124 ) ;
#21 = CC_DESIGN_DATE_AND_TIME_ASSIGNMENT ( #149, #139, ( #47 ) ) ;
#22 = PERSON_AND_ORGANIZATION ( #75, #106 ) ;
#23 = EDGE_LOOP ( 'NONE', ( #160, #77, #51, #62 ) ) ;
#24 = DIRECTION ( 'NONE',  ( 1.000000000000000000, 0.0000000000000000000, 0.0000000000000000000 ) ) ;
#25 = DIRECTION ( 'NONE',  ( 0.0000000000000000000, 0.0000000000000000000, -1.000000000000000000 ) ) ;
#26 = APPROVAL ( #111, 'UNSPECIFIED' ) ;
#27 = DATE_AND_TIME ( #137, #17 ) ;
#28 = DIRECTION ( 'NONE',  ( 0.0000000000000000000, 0.0000000000000000000, -1.000000000000000000 ) ) ;
#29 = LOCAL_TIME ( 10, 39, 25.00000000000000000, #140 ) ;
#30 = PERSON_AND_ORGANIZATION_ROLE ( 'creator' ) ;
#31 = APPROVAL_STATUS ( 'not_yet_approved' ) ;
#32 = DATE_AND_TIME ( #163, #154 ) ;
#33 = PERSON_AND_ORGANIZATION_ROLE ( 'classification_officer' ) ;
#34 = ADVANCED_FACE ( 'NONE', ( #169 ), #156, .T. ) ;
#35 = CARTESIAN_POINT ( 'NONE',  ( -0.8000000000000000444, 7.654042494670957606E-16, -6.250000000000000000 ) ) ;
#36 = CIRCLE ( 'NONE', #65, 6.250000000000000000 ) ;
#37 = DIRECTION ( 'NONE',  ( -1.000000000000000000, -0.0000000000000000000, -0.0000000000000000000 ) ) ;
#38 = LOCAL_TIME ( 10, 39, 25.00000000000000000, #97 ) ;
#39 = APPLICATION_CONTEXT ( 'configuration controlled 3d designs of mechanical parts and assemblies' ) ;
#40 = PRODUCT_DEFINITION_FORMATION_WITH_SPECIFIED_SOURCE ( 'ANY', '', #104, .NOT_KNOWN. ) ;
#41 = MECHANICAL_CONTEXT ( 'NONE', #70, 'mechanical' ) ;
#42 = EDGE_CURVE ( 'NONE', #166, #170, #141, .T. ) ;
#43 = PERSON_AND_ORGANIZATION ( #75, #106 ) ;
#44 = ORIENTED_EDGE ( 'NONE', *, *, #6, .F. ) ;
#45 = AXIS2_PLACEMENT_3D ( 'NONE', #7, #123, #168 ) ;
#46 = CALENDAR_DATE ( 2019, 1, 11 ) ;
#47 = PRODUCT_DEFINITION ( 'UNKNOWN', '', #40, #55 ) ;
#48 = CC_DESIGN_PERSON_AND_ORGANIZATION_ASSIGNMENT ( #49, #33, ( #145 ) ) ;
#49 = PERSON_AND_ORGANIZATION ( #75, #106 ) ;
#50 =( GEOMETRIC_REPRESENTATION_CONTEXT ( 3 ) GLOBAL_UNCERTAINTY_ASSIGNED_CONTEXT ( ( #82 ) ) GLOBAL_UNIT_ASSIGNED_CONTEXT ( ( #165, #138, #152 ) ) REPRESENTATION_CONTEXT ( 'NONE', 'WORKASPACE' ) );
#51 = ORIENTED_EDGE ( 'NONE', *, *, #42, .T. ) ;
#52 = APPROVAL_ROLE ( '' ) ;
#53 = COORDINATED_UNIVERSAL_TIME_OFFSET ( 5, 0, .BEHIND. ) ;
#54 = CC_DESIGN_PERSON_AND_ORGANIZATION_ASSIGNMENT ( #155, #164, ( #104 ) ) ;
#55 = DESIGN_CONTEXT ( 'detailed design', #39, 'design' ) ;
#56 = PERSON_AND_ORGANIZATION ( #75, #106 ) ;
#57 = EDGE_LOOP ( 'NONE', ( #60, #153 ) ) ;
#58 = CARTESIAN_POINT ( 'NONE',  ( 0.8000000000000000444, 0.0000000000000000000, 6.250000000000000000 ) ) ;
#59 = DATE_AND_TIME ( #61, #29 ) ;
#60 = ORIENTED_EDGE ( 'NONE', *, *, #110, .T. ) ;
#61 = CALENDAR_DATE ( 2019, 1, 11 ) ;
#62 = ORIENTED_EDGE ( 'NONE', *, *, #15, .F. ) ;
#63 = CC_DESIGN_PERSON_AND_ORGANIZATION_ASSIGNMENT ( #84, #30, ( #47 ) ) ;
#64 = CARTESIAN_POINT ( 'NONE',  ( 0.8000000000000000444, 7.654042494670957606E-16, -6.250000000000000000 ) ) ;
#65 = AXIS2_PLACEMENT_3D ( 'NONE', #136, #69, #83 ) ;
#66 = DIRECTION ( 'NONE',  ( 0.0000000000000000000, 0.0000000000000000000, -1.000000000000000000 ) ) ;
#67 = APPROVAL ( #31, 'UNSPECIFIED' ) ;
#68 = DIRECTION ( 'NONE',  ( -1.000000000000000000, -0.0000000000000000000, -0.0000000000000000000 ) ) ;
#69 = DIRECTION ( 'NONE',  ( 1.000000000000000000, 0.0000000000000000000, 0.0000000000000000000 ) ) ;
#70 = APPLICATION_CONTEXT ( 'configuration controlled 3d designs of mechanical parts and assemblies' ) ;
#71 = APPROVAL_PERSON_ORGANIZATION ( #16, #67, #108 ) ;
#72 = CC_DESIGN_SECURITY_CLASSIFICATION ( #145, ( #40 ) ) ;
#73 = LINE ( 'NONE', #13, #116 ) ;
#74 = EDGE_LOOP ( 'NONE', ( #44, #121, #133, #103 ) ) ;
#75 = PERSON ( 'UNSPECIFIED', 'UNSPECIFIED', 'UNSPECIFIED', ('UNSPECIFIED'), ('UNSPECIFIED'), ('UNSPECIFIED') ) ;
#76 = APPROVAL_DATE_TIME ( #32, #67 ) ;
#77 = ORIENTED_EDGE ( 'NONE', *, *, #6, .T. ) ;
#78 = CC_DESIGN_PERSON_AND_ORGANIZATION_ASSIGNMENT ( #56, #143, ( #40 ) ) ;
#79 = CC_DESIGN_APPROVAL ( #26, ( #40 ) ) ;
#80 = AXIS2_PLACEMENT_3D ( 'NONE', #5, #24, #1 ) ;
#81 = ADVANCED_FACE ( 'NONE', ( #135 ), #162, .T. ) ;
#82 = UNCERTAINTY_MEASURE_WITH_UNIT (LENGTH_MEASURE( 1.000000000000000082E-05 ), #165, 'distance_accuracy_value', 'NONE');
#83 = DIRECTION ( 'NONE',  ( 0.0000000000000000000, 0.0000000000000000000, -1.000000000000000000 ) ) ;
#84 = PERSON_AND_ORGANIZATION ( #75, #106 ) ;
#85 = FACE_OUTER_BOUND ( 'NONE', #144, .T. ) ;
#86 = CARTESIAN_POINT ( 'NONE',  ( -0.8000000000000000444, 0.0000000000000000000, 6.250000000000000000 ) ) ;
#87 = CARTESIAN_POINT ( 'NONE',  ( -0.8000000000000000444, 0.0000000000000000000, 0.0000000000000000000 ) ) ;
#88 = CYLINDRICAL_SURFACE ( 'NONE', #131, 6.250000000000000000 ) ;
#89 = PRODUCT_DEFINITION_SHAPE ( 'NONE', 'NONE',  #47 ) ;
#90 = DIRECTION ( 'NONE',  ( 1.000000000000000000, 0.0000000000000000000, 0.0000000000000000000 ) ) ;
#91 = APPLICATION_PROTOCOL_DEFINITION ( 'international standard', 'config_control_design', 1994, #70 ) ;
#92 = AXIS2_PLACEMENT_3D ( 'NONE', #10, #102, #28 ) ;
#93 = CIRCLE ( 'NONE', #45, 6.250000000000000000 ) ;
#94 = APPROVAL ( #142, 'UNSPECIFIED' ) ;
#95 = DATE_TIME_ROLE ( 'classification_date' ) ;
#96 = PLANE ( 'NONE',  #80 ) ;
#97 = COORDINATED_UNIVERSAL_TIME_OFFSET ( 5, 0, .BEHIND. ) ;
#98 = CC_DESIGN_PERSON_AND_ORGANIZATION_ASSIGNMENT ( #22, #18, ( #40 ) ) ;
#99 = APPROVAL_PERSON_ORGANIZATION ( #173, #26, #52 ) ;
#100 = VERTEX_POINT ( 'NONE', #64 ) ;
#101 = DIRECTION ( 'NONE',  ( 0.0000000000000000000, 0.0000000000000000000, 1.000000000000000000 ) ) ;
#102 = DIRECTION ( 'NONE',  ( 1.000000000000000000, 0.0000000000000000000, 0.0000000000000000000 ) ) ;
#103 = ORIENTED_EDGE ( 'NONE', *, *, #147, .T. ) ;
#104 = PRODUCT ( 'Web Model 12451_12458', 'Web Model 12451_12458', '', ( #41 ) ) ;
#105 = APPLICATION_PROTOCOL_DEFINITION ( 'international standard', 'config_control_design', 1994, #39 ) ;
#106 = ORGANIZATION ( 'UNSPECIFIED', 'UNSPECIFIED', '' ) ;
#107 = COORDINATED_UNIVERSAL_TIME_OFFSET ( 5, 0, .BEHIND. ) ;
#108 = APPROVAL_ROLE ( '' ) ;
#109 = CC_DESIGN_APPROVAL ( #94, ( #47 ) ) ;
#110 = EDGE_CURVE ( 'NONE', #128, #100, #93, .T. ) ;
#111 = APPROVAL_STATUS ( 'not_yet_approved' ) ;
#112 = ORIENTED_EDGE ( 'NONE', *, *, #147, .F. ) ;
#113 = SECURITY_CLASSIFICATION_LEVEL ( 'unclassified' ) ;
#114 = PRODUCT_RELATED_PRODUCT_CATEGORY ( 'detail', '', ( #104 ) ) ;
#115 = DIRECTION ( 'NONE',  ( 1.000000000000000000, 0.0000000000000000000, 0.0000000000000000000 ) ) ;
#116 = VECTOR ( 'NONE', #68, 1000.000000000000000 ) ;
#117 = CARTESIAN_POINT ( 'NONE',  ( 0.8000000000000000444, 7.654042494670957606E-16, -6.250000000000000000 ) ) ;
#118 = CALENDAR_DATE ( 2019, 1, 11 ) ;
#119 = APPROVAL_ROLE ( '' ) ;
#120 = CIRCLE ( 'NONE', #92, 6.250000000000000000 ) ;
#121 = ORIENTED_EDGE ( 'NONE', *, *, #110, .F. ) ;
#122 = MANIFOLD_SOLID_BREP ( 'Boss-Extrude1', #148 ) ;
#123 = DIRECTION ( 'NONE',  ( 1.000000000000000000, 0.0000000000000000000, 0.0000000000000000000 ) ) ;
#124 = COORDINATED_UNIVERSAL_TIME_OFFSET ( 5, 0, .BEHIND. ) ;
#125 = AXIS2_PLACEMENT_3D ( 'NONE', #151, #101, #90 ) ;
#126 = APPROVAL_DATE_TIME ( #59, #94 ) ;
#127 = LINE ( 'NONE', #117, #159 ) ;
#128 = VERTEX_POINT ( 'NONE', #58 ) ;
#129 = CC_DESIGN_APPROVAL ( #67, ( #145 ) ) ;
#130 = CARTESIAN_POINT ( 'NONE',  ( 0.8000000000000000444, 0.0000000000000000000, 0.0000000000000000000 ) ) ;
#131 = AXIS2_PLACEMENT_3D ( 'NONE', #130, #157, #161 ) ;
#132 = SHAPE_DEFINITION_REPRESENTATION ( #89, #14 ) ;
#133 = ORIENTED_EDGE ( 'NONE', *, *, #15, .T. ) ;
#134 = APPROVAL_PERSON_ORGANIZATION ( #43, #94, #119 ) ;
#135 = FACE_OUTER_BOUND ( 'NONE', #57, .T. ) ;
#136 = CARTESIAN_POINT ( 'NONE',  ( 0.8000000000000000444, 0.0000000000000000000, 0.0000000000000000000 ) ) ;
#137 = CALENDAR_DATE ( 2019, 1, 11 ) ;
#138 =( NAMED_UNIT ( * ) PLANE_ANGLE_UNIT ( ) SI_UNIT ( $, .RADIAN. ) );
#139 = DATE_TIME_ROLE ( 'creation_date' ) ;
#140 = COORDINATED_UNIVERSAL_TIME_OFFSET ( 5, 0, .BEHIND. ) ;
#141 = CIRCLE ( 'NONE', #9, 6.250000000000000000 ) ;
#142 = APPROVAL_STATUS ( 'not_yet_approved' ) ;
#143 = PERSON_AND_ORGANIZATION_ROLE ( 'creator' ) ;
#144 = EDGE_LOOP ( 'NONE', ( #112, #3 ) ) ;
#145 = SECURITY_CLASSIFICATION ( '', '', #113 ) ;
#146 = ADVANCED_FACE ( 'NONE', ( #85 ), #96, .F. ) ;
#147 = EDGE_CURVE ( 'NONE', #170, #166, #120, .T. ) ;
#148 = CLOSED_SHELL ( 'NONE', ( #12, #34, #81, #146 ) ) ;
#149 = DATE_AND_TIME ( #46, #38 ) ;
#150 = DIRECTION ( 'NONE',  ( -1.000000000000000000, -0.0000000000000000000, -0.0000000000000000000 ) ) ;
#151 = CARTESIAN_POINT ( 'NONE',  ( 0.0000000000000000000, 0.0000000000000000000, 0.0000000000000000000 ) ) ;
#152 =( NAMED_UNIT ( * ) SI_UNIT ( $, .STERADIAN. ) SOLID_ANGLE_UNIT ( ) );
#153 = ORIENTED_EDGE ( 'NONE', *, *, #4, .T. ) ;
#154 = LOCAL_TIME ( 10, 39, 25.00000000000000000, #107 ) ;
#155 = PERSON_AND_ORGANIZATION ( #75, #106 ) ;
#156 = CYLINDRICAL_SURFACE ( 'NONE', #2, 6.250000000000000000 ) ;
#157 = DIRECTION ( 'NONE',  ( -1.000000000000000000, -0.0000000000000000000, -0.0000000000000000000 ) ) ;
#158 = DIRECTION ( 'NONE',  ( 0.0000000000000000000, 0.0000000000000000000, 1.000000000000000000 ) ) ;
#159 = VECTOR ( 'NONE', #37, 1000.000000000000000 ) ;
#160 = ORIENTED_EDGE ( 'NONE', *, *, #4, .F. ) ;
#161 = DIRECTION ( 'NONE',  ( 0.0000000000000000000, 0.0000000000000000000, 1.000000000000000000 ) ) ;
#162 = PLANE ( 'NONE',  #19 ) ;
#163 = CALENDAR_DATE ( 2019, 1, 11 ) ;
#164 = PERSON_AND_ORGANIZATION_ROLE ( 'design_owner' ) ;
#165 =( LENGTH_UNIT ( ) NAMED_UNIT ( * ) SI_UNIT ( .MILLI., .METRE. ) );
#166 = VERTEX_POINT ( 'NONE', #35 ) ;
#167 = APPROVAL_DATE_TIME ( #27, #26 ) ;
#168 = DIRECTION ( 'NONE',  ( 0.0000000000000000000, 0.0000000000000000000, -1.000000000000000000 ) ) ;
#169 = FACE_OUTER_BOUND ( 'NONE', #74, .T. ) ;
#170 = VERTEX_POINT ( 'NONE', #86 ) ;
#171 = CARTESIAN_POINT ( 'NONE',  ( 0.8000000000000000444, 0.0000000000000000000, 0.0000000000000000000 ) ) ;
#172 = DATE_AND_TIME ( #118, #20 ) ;
#173 = PERSON_AND_ORGANIZATION ( #75, #106 ) ;
#174 = CARTESIAN_POINT ( 'NONE',  ( 0.8000000000000000444, 0.0000000000000000000, 0.0000000000000000000 ) ) ;
#175 = DIRECTION ( 'NONE',  ( 1.000000000000000000, 0.0000000000000000000, 0.0000000000000000000 ) ) ;
ENDSEC;
END-ISO-10303-21;
