ISO-10303-21;
HEADER;
FILE_DESCRIPTION (( 'STEP AP203' ),
    '1' );
FILE_NAME ('5434-E0W.STEP',
    '2015-02-24T16:45:39',
    ( 'Admin' ),
    ( '' ),
    'SwSTEP 2.0',
    'SolidWorks 2014',
    '' );
FILE_SCHEMA (( 'CONFIG_CONTROL_DESIGN' ));
ENDSEC;

DATA;
#1 = ORIENTED_EDGE ( 'NONE', *, *, #146, .T. ) ;
#2 = LOCAL_TIME ( 11, 45, 39.00000000000000000, #37 ) ;
#3 = DATE_AND_TIME ( #219, #208 ) ;
#4 = ADVANCED_FACE ( 'NONE', ( #65 ), #140, .F. ) ;
#5 = CIRCLE ( 'NONE', #100, 4.500000000000000900 ) ;
#6 = DIRECTION ( 'NONE',  ( -0.0000000000000000000, -0.0000000000000000000, 1.000000000000000000 ) ) ;
#7 = SECURITY_CLASSIFICATION_LEVEL ( 'unclassified' ) ;
#8 = PRODUCT_DEFINITION_FORMATION_WITH_SPECIFIED_SOURCE ( 'ANY', '', #152, .NOT_KNOWN. ) ;
#9 = ORIENTED_EDGE ( 'NONE', *, *, #126, .F. ) ;
#10 = CARTESIAN_POINT ( 'NONE',  ( -5.510910596163089600E-016, -4.500000000000000900, 2.638097352618197000 ) ) ;
#11 = DIRECTION ( 'NONE',  ( 0.0000000000000000000, 0.0000000000000000000, 1.000000000000000000 ) ) ;
#12 = DATE_AND_TIME ( #132, #105 ) ;
#13 = DIRECTION ( 'NONE',  ( -1.000000000000000000, 1.224646799147353200E-016, 0.0000000000000000000 ) ) ;
#14 = CC_DESIGN_DATE_AND_TIME_ASSIGNMENT ( #3, #69, ( #71 ) ) ;
#15 = ORIENTED_EDGE ( 'NONE', *, *, #90, .F. ) ;
#16 = APPROVAL_PERSON_ORGANIZATION ( #108, #112, #18 ) ;
#17 = CARTESIAN_POINT ( 'NONE',  ( 0.0000000000000000000, 4.500000000000000900, 2.638097352618197000 ) ) ;
#18 = APPROVAL_ROLE ( '' ) ;
#19 = DESIGN_CONTEXT ( 'detailed design', #78, 'design' ) ;
#20 = EDGE_CURVE ( 'NONE', #64, #156, #212, .T. ) ;
#21 = CIRCLE ( 'NONE', #138, 7.000000000000000000 ) ;
#22 = ORIENTED_EDGE ( 'NONE', *, *, #211, .T. ) ;
#23 = DIRECTION ( 'NONE',  ( 1.000000000000000000, 0.0000000000000000000, 0.0000000000000000000 ) ) ;
#24 = PERSON_AND_ORGANIZATION_ROLE ( 'creator' ) ;
#25 = DIRECTION ( 'NONE',  ( 1.000000000000000000, 0.0000000000000000000, 0.0000000000000000000 ) ) ;
#26 = ORIENTED_EDGE ( 'NONE', *, *, #146, .F. ) ;
#27 = FACE_OUTER_BOUND ( 'NONE', #175, .T. ) ;
#28 = LINE ( 'NONE', #178, #45 ) ;
#29 = PERSON_AND_ORGANIZATION_ROLE ( 'creator' ) ;
#30 = ORIENTED_EDGE ( 'NONE', *, *, #200, .F. ) ;
#31 = CC_DESIGN_DATE_AND_TIME_ASSIGNMENT ( #125, #151, ( #96 ) ) ;
#32 = CARTESIAN_POINT ( 'NONE',  ( 4.500000000000000900, 0.0000000000000000000, 2.638097352618196600 ) ) ;
#33 = APPLICATION_PROTOCOL_DEFINITION ( 'international standard', 'config_control_design', 1994, #58 ) ;
#34 = APPROVAL_STATUS ( 'not_yet_approved' ) ;
#35 = AXIS2_PLACEMENT_3D ( 'NONE', #80, #202, #155 ) ;
#36 = ORIENTED_EDGE ( 'NONE', *, *, #211, .F. ) ;
#37 = COORDINATED_UNIVERSAL_TIME_OFFSET ( 5, 0, .BEHIND. ) ;
#38 = ADVANCED_FACE ( 'NONE', ( #168 ), #209, .F. ) ;
#39 = DIRECTION ( 'NONE',  ( 1.000000000000000000, 0.0000000000000000000, 0.0000000000000000000 ) ) ;
#40 = ORIENTED_EDGE ( 'NONE', *, *, #200, .T. ) ;
#41 = MECHANICAL_CONTEXT ( 'NONE', #58, 'mechanical' ) ;
#42 = CC_DESIGN_APPROVAL ( #67, ( #96 ) ) ;
#43 = EDGE_LOOP ( 'NONE', ( #26, #15 ) ) ;
#44 = DIRECTION ( 'NONE',  ( -0.0000000000000000000, -0.0000000000000000000, 1.000000000000000000 ) ) ;
#45 = VECTOR ( 'NONE', #218, 1000.000000000000000 ) ;
#46 = DIRECTION ( 'NONE',  ( -1.000000000000000000, 0.0000000000000000000, 0.0000000000000000000 ) ) ;
#47 = APPROVAL_STATUS ( 'not_yet_approved' ) ;
#48 = CARTESIAN_POINT ( 'NONE',  ( 0.0000000000000000000, 0.0000000000000000000, 2.638097352618196600 ) ) ;
#49 = APPROVAL ( #47, 'UNSPECIFIED' ) ;
#50 = PERSON_AND_ORGANIZATION_ROLE ( 'design_supplier' ) ;
#51 = CC_DESIGN_SECURITY_CLASSIFICATION ( #96, ( #8 ) ) ;
#52 = CLOSED_SHELL ( 'NONE', ( #70, #38, #145, #4, #164 ) ) ;
#53 = EDGE_CURVE ( 'NONE', #64, #153, #21, .T. ) ;
#54 = CIRCLE ( 'NONE', #149, 4.500000000000000900 ) ;
#55 = DIRECTION ( 'NONE',  ( -1.000000000000000000, 0.0000000000000000000, 0.0000000000000000000 ) ) ;
#56 = DIRECTION ( 'NONE',  ( -0.0000000000000000000, -0.0000000000000000000, 1.000000000000000000 ) ) ;
#57 = AXIS2_PLACEMENT_3D ( 'NONE', #48, #171, #25 ) ;
#58 = APPLICATION_CONTEXT ( 'configuration controlled 3d designs of mechanical parts and assemblies' ) ;
#59 = DIRECTION ( 'NONE',  ( 1.000000000000000000, 0.0000000000000000000, 0.0000000000000000000 ) ) ;
#60 = ORIENTED_EDGE ( 'NONE', *, *, #20, .F. ) ;
#61 = DIRECTION ( 'NONE',  ( 1.000000000000000000, 0.0000000000000000000, 0.0000000000000000000 ) ) ;
#62 = DIRECTION ( 'NONE',  ( 1.000000000000000000, 0.0000000000000000000, 0.0000000000000000000 ) ) ;
#63 = PRODUCT_DEFINITION_SHAPE ( 'NONE', 'NONE',  #71 ) ;
#64 = VERTEX_POINT ( 'NONE', #217 ) ;
#65 = FACE_OUTER_BOUND ( 'NONE', #43, .T. ) ;
#66 = EDGE_LOOP ( 'NONE', ( #1, #204, #139, #30, #118 ) ) ;
#67 = APPROVAL ( #34, 'UNSPECIFIED' ) ;
#68 = COORDINATED_UNIVERSAL_TIME_OFFSET ( 5, 0, .BEHIND. ) ;
#69 = DATE_TIME_ROLE ( 'creation_date' ) ;
#70 = ADVANCED_FACE ( 'NONE', ( #129 ), #165, .T. ) ;
#71 = PRODUCT_DEFINITION ( 'UNKNOWN', '', #8, #19 ) ;
#72 = ORIENTED_EDGE ( 'NONE', *, *, #109, .T. ) ;
#73 = APPROVAL_PERSON_ORGANIZATION ( #120, #49, #94 ) ;
#74 = PERSON_AND_ORGANIZATION_ROLE ( 'classification_officer' ) ;
#75 = AXIS2_PLACEMENT_3D ( 'NONE', #177, #79, #59 ) ;
#76 = CALENDAR_DATE ( 2015, 24, 2 ) ;
#77 = SPHERICAL_SURFACE ( 'NONE', #180, 7.000000000000000000 ) ;
#78 = APPLICATION_CONTEXT ( 'configuration controlled 3d designs of mechanical parts and assemblies' ) ;
#79 = DIRECTION ( 'NONE',  ( 0.0000000000000000000, -0.0000000000000000000, 1.000000000000000000 ) ) ;
#80 = CARTESIAN_POINT ( 'NONE',  ( 0.0000000000000000000, 0.0000000000000000000, 8.000000000000000000 ) ) ;
#81 = CARTESIAN_POINT ( 'NONE',  ( 0.0000000000000000000, 0.0000000000000000000, -1.000000000000000900 ) ) ;
#82 = AXIS2_PLACEMENT_3D ( 'NONE', #114, #188, #111 ) ;
#83 = CARTESIAN_POINT ( 'NONE',  ( 0.0000000000000000000, 0.0000000000000000000, 2.638097352618196600 ) ) ;
#84 = ORIENTED_EDGE ( 'NONE', *, *, #90, .T. ) ;
#85 = AXIS2_PLACEMENT_3D ( 'NONE', #130, #135, #39 ) ;
#86 = VERTEX_POINT ( 'NONE', #32 ) ;
#87 = LOCAL_TIME ( 11, 45, 39.00000000000000000, #68 ) ;
#88 = APPLICATION_PROTOCOL_DEFINITION ( 'international standard', 'config_control_design', 1994, #78 ) ;
#89 = AXIS2_PLACEMENT_3D ( 'NONE', #137, #11, #150 ) ;
#90 = EDGE_CURVE ( 'NONE', #181, #99, #54, .T. ) ;
#91 = DIRECTION ( 'NONE',  ( 1.000000000000000000, 0.0000000000000000000, 0.0000000000000000000 ) ) ;
#92 = CIRCLE ( 'NONE', #85, 4.500000000000000900 ) ;
#93 = LINE ( 'NONE', #133, #102 ) ;
#94 = APPROVAL_ROLE ( '' ) ;
#95 = AXIS2_PLACEMENT_3D ( 'NONE', #81, #106, #62 ) ;
#96 = SECURITY_CLASSIFICATION ( '', '', #7 ) ;
#97 = UNCERTAINTY_MEASURE_WITH_UNIT (LENGTH_MEASURE( 1.000000000000000100E-005 ), #183, 'distance_accuracy_value', 'NONE');
#98 = ORIENTED_EDGE ( 'NONE', *, *, #185, .F. ) ;
#99 = VERTEX_POINT ( 'NONE', #158 ) ;
#100 = AXIS2_PLACEMENT_3D ( 'NONE', #104, #56, #23 ) ;
#101 = PERSON_AND_ORGANIZATION ( #162, #107 ) ;
#102 = VECTOR ( 'NONE', #6, 1000.000000000000000 ) ;
#103 = CARTESIAN_POINT ( 'NONE',  ( 0.0000000000000000000, 0.0000000000000000000, 8.000000000000000000 ) ) ;
#104 = CARTESIAN_POINT ( 'NONE',  ( 0.0000000000000000000, 0.0000000000000000000, 2.638097352618196600 ) ) ;
#105 = LOCAL_TIME ( 11, 45, 39.00000000000000000, #170 ) ;
#106 = DIRECTION ( 'NONE',  ( -0.0000000000000000000, -0.0000000000000000000, 1.000000000000000000 ) ) ;
#107 = ORGANIZATION ( 'UNSPECIFIED', 'UNSPECIFIED', '' ) ;
#108 = PERSON_AND_ORGANIZATION ( #162, #107 ) ;
#109 = EDGE_CURVE ( 'NONE', #156, #172, #92, .T. ) ;
#110 = EDGE_CURVE ( 'NONE', #99, #86, #93, .T. ) ;
#111 = DIRECTION ( 'NONE',  ( 1.000000000000000000, 0.0000000000000000000, 0.0000000000000000000 ) ) ;
#112 = APPROVAL ( #136, 'UNSPECIFIED' ) ;
#113 = AXIS2_PLACEMENT_3D ( 'NONE', #148, #55, #167 ) ;
#114 = CARTESIAN_POINT ( 'NONE',  ( 0.0000000000000000000, 0.0000000000000000000, 9.017153270429325600 ) ) ;
#115 = PERSON_AND_ORGANIZATION_ROLE ( 'design_owner' ) ;
#116 = AXIS2_PLACEMENT_3D ( 'NONE', #220, #44, #215 ) ;
#117 = DIRECTION ( 'NONE',  ( 0.0000000000000000000, 1.000000000000000000, 0.0000000000000000000 ) ) ;
#118 = ORIENTED_EDGE ( 'NONE', *, *, #110, .F. ) ;
#119 = CC_DESIGN_APPROVAL ( #112, ( #71 ) ) ;
#120 = PERSON_AND_ORGANIZATION ( #162, #107 ) ;
#121 = FACE_OUTER_BOUND ( 'NONE', #213, .T. ) ;
#122 = CARTESIAN_POINT ( 'NONE',  ( 0.0000000000000000000, 0.0000000000000000000, -1.000000000000000900 ) ) ;
#123 = CC_DESIGN_PERSON_AND_ORGANIZATION_ASSIGNMENT ( #143, #29, ( #8 ) ) ;
#124 = AXIS2_PLACEMENT_3D ( 'NONE', #83, #134, #91 ) ;
#125 = DATE_AND_TIME ( #76, #2 ) ;
#126 = EDGE_CURVE ( 'NONE', #153, #86, #186, .T. ) ;
#127 = ORIENTED_EDGE ( 'NONE', *, *, #126, .T. ) ;
#128 = PERSON_AND_ORGANIZATION ( #162, #107 ) ;
#129 = FACE_OUTER_BOUND ( 'NONE', #66, .T. ) ;
#130 = CARTESIAN_POINT ( 'NONE',  ( 0.0000000000000000000, 0.0000000000000000000, 2.638097352618196600 ) ) ;
#131 =( NAMED_UNIT ( * ) SI_UNIT ( $, .STERADIAN. ) SOLID_ANGLE_UNIT ( ) );
#132 = CALENDAR_DATE ( 2015, 24, 2 ) ;
#133 = CARTESIAN_POINT ( 'NONE',  ( 4.500000000000000900, 0.0000000000000000000, 9.017153270429325600 ) ) ;
#134 = DIRECTION ( 'NONE',  ( -0.0000000000000000000, -0.0000000000000000000, 1.000000000000000000 ) ) ;
#135 = DIRECTION ( 'NONE',  ( -0.0000000000000000000, -0.0000000000000000000, 1.000000000000000000 ) ) ;
#136 = APPROVAL_STATUS ( 'not_yet_approved' ) ;
#137 = CARTESIAN_POINT ( 'NONE',  ( 0.0000000000000000000, 0.0000000000000000000, 0.0000000000000000000 ) ) ;
#138 = AXIS2_PLACEMENT_3D ( 'NONE', #103, #13, #193 ) ;
#139 = ORIENTED_EDGE ( 'NONE', *, *, #109, .F. ) ;
#140 = PLANE ( 'NONE',  #75 ) ;
#141 = LOCAL_TIME ( 11, 45, 39.00000000000000000, #154 ) ;
#142 = PRODUCT_RELATED_PRODUCT_CATEGORY ( 'detail', '', ( #152 ) ) ;
#143 = PERSON_AND_ORGANIZATION ( #162, #107 ) ;
#144 = APPROVAL_PERSON_ORGANIZATION ( #174, #67, #197 ) ;
#145 = ADVANCED_FACE ( 'NONE', ( #27 ), #77, .F. ) ;
#146 = EDGE_CURVE ( 'NONE', #99, #181, #166, .T. ) ;
#147 = CALENDAR_DATE ( 2015, 24, 2 ) ;
#148 = CARTESIAN_POINT ( 'NONE',  ( 0.0000000000000000000, 0.0000000000000000000, 8.000000000000000000 ) ) ;
#149 = AXIS2_PLACEMENT_3D ( 'NONE', #122, #195, #61 ) ;
#150 = DIRECTION ( 'NONE',  ( 1.000000000000000000, 0.0000000000000000000, 0.0000000000000000000 ) ) ;
#151 = DATE_TIME_ROLE ( 'classification_date' ) ;
#152 = PRODUCT ( '5434-E0W', '5434-E0W', '', ( #41 ) ) ;
#153 = VERTEX_POINT ( 'NONE', #10 ) ;
#154 = COORDINATED_UNIVERSAL_TIME_OFFSET ( 5, 0, .BEHIND. ) ;
#155 = DIRECTION ( 'NONE',  ( 0.0000000000000000000, 0.0000000000000000000, -1.000000000000000000 ) ) ;
#156 = VERTEX_POINT ( 'NONE', #17 ) ;
#157 = CALENDAR_DATE ( 2015, 24, 2 ) ;
#158 = CARTESIAN_POINT ( 'NONE',  ( 4.500000000000000900, 0.0000000000000000000, -1.000000000000000900 ) ) ;
#159 = CC_DESIGN_PERSON_AND_ORGANIZATION_ASSIGNMENT ( #210, #50, ( #8 ) ) ;
#160 = DATE_AND_TIME ( #147, #141 ) ;
#161 = MANIFOLD_SOLID_BREP ( '5434-001-1-solid1', #52 ) ;
#162 = PERSON ( 'UNSPECIFIED', 'UNSPECIFIED', 'UNSPECIFIED', ('UNSPECIFIED'), ('UNSPECIFIED'), ('UNSPECIFIED') ) ;
#163 = COORDINATED_UNIVERSAL_TIME_OFFSET ( 5, 0, .BEHIND. ) ;
#164 = ADVANCED_FACE ( 'NONE', ( #121 ), #196, .T. ) ;
#165 = CYLINDRICAL_SURFACE ( 'NONE', #82, 4.500000000000000900 ) ;
#166 = CIRCLE ( 'NONE', #95, 4.500000000000000900 ) ;
#167 = DIRECTION ( 'NONE',  ( 0.0000000000000000000, 1.000000000000000000, 0.0000000000000000000 ) ) ;
#168 = FACE_OUTER_BOUND ( 'NONE', #184, .T. ) ;
#169 = DATE_AND_TIME ( #157, #87 ) ;
#170 = COORDINATED_UNIVERSAL_TIME_OFFSET ( 5, 0, .BEHIND. ) ;
#171 = DIRECTION ( 'NONE',  ( -0.0000000000000000000, -0.0000000000000000000, 1.000000000000000000 ) ) ;
#172 = VERTEX_POINT ( 'NONE', #191 ) ;
#173 = CARTESIAN_POINT ( 'NONE',  ( 0.0000000000000000000, 0.0000000000000000000, 8.000000000000000000 ) ) ;
#174 = PERSON_AND_ORGANIZATION ( #162, #107 ) ;
#175 = EDGE_LOOP ( 'NONE', ( #187, #190, #72, #22 ) ) ;
#176 = CC_DESIGN_PERSON_AND_ORGANIZATION_ASSIGNMENT ( #128, #115, ( #152 ) ) ;
#177 = CARTESIAN_POINT ( 'NONE',  ( 0.0000000000000000000, 3.673940397442059900E-016, -1.000000000000000000 ) ) ;
#178 = CARTESIAN_POINT ( 'NONE',  ( -4.500000000000000900, 5.510910596163089600E-016, 9.017153270429325600 ) ) ;
#179 = CC_DESIGN_PERSON_AND_ORGANIZATION_ASSIGNMENT ( #206, #24, ( #71 ) ) ;
#180 = AXIS2_PLACEMENT_3D ( 'NONE', #173, #46, #117 ) ;
#181 = VERTEX_POINT ( 'NONE', #182 ) ;
#182 = CARTESIAN_POINT ( 'NONE',  ( -4.500000000000000900, 5.510910596163089600E-016, -1.000000000000000900 ) ) ;
#183 =( LENGTH_UNIT ( ) NAMED_UNIT ( * ) SI_UNIT ( .MILLI., .METRE. ) );
#184 = EDGE_LOOP ( 'NONE', ( #60, #216, #127, #40 ) ) ;
#185 = EDGE_CURVE ( 'NONE', #181, #172, #28, .T. ) ;
#186 = CIRCLE ( 'NONE', #57, 4.500000000000000900 ) ;
#187 = ORIENTED_EDGE ( 'NONE', *, *, #53, .F. ) ;
#188 = DIRECTION ( 'NONE',  ( -0.0000000000000000000, -0.0000000000000000000, 1.000000000000000000 ) ) ;
#189 = APPROVAL_DATE_TIME ( #160, #112 ) ;
#190 = ORIENTED_EDGE ( 'NONE', *, *, #20, .T. ) ;
#191 = CARTESIAN_POINT ( 'NONE',  ( -4.500000000000000900, 5.510910596163089600E-016, 2.638097352618196600 ) ) ;
#192 = APPROVAL_DATE_TIME ( #169, #49 ) ;
#193 = DIRECTION ( 'NONE',  ( -1.224646799147353200E-016, -1.000000000000000000, 0.0000000000000000000 ) ) ;
#194 = CC_DESIGN_PERSON_AND_ORGANIZATION_ASSIGNMENT ( #101, #74, ( #96 ) ) ;
#195 = DIRECTION ( 'NONE',  ( -0.0000000000000000000, -0.0000000000000000000, 1.000000000000000000 ) ) ;
#196 = CYLINDRICAL_SURFACE ( 'NONE', #116, 4.500000000000000900 ) ;
#197 = APPROVAL_ROLE ( '' ) ;
#198 =( GEOMETRIC_REPRESENTATION_CONTEXT ( 3 ) GLOBAL_UNCERTAINTY_ASSIGNED_CONTEXT ( ( #97 ) ) GLOBAL_UNIT_ASSIGNED_CONTEXT ( ( #183, #221, #131 ) ) REPRESENTATION_CONTEXT ( 'NONE', 'WORKASPACE' ) );
#199 = SHAPE_DEFINITION_REPRESENTATION ( #63, #205 ) ;
#200 = EDGE_CURVE ( 'NONE', #86, #156, #201, .T. ) ;
#201 = CIRCLE ( 'NONE', #124, 4.500000000000000900 ) ;
#202 = DIRECTION ( 'NONE',  ( 1.000000000000000000, 0.0000000000000000000, 0.0000000000000000000 ) ) ;
#203 = CC_DESIGN_APPROVAL ( #49, ( #8 ) ) ;
#204 = ORIENTED_EDGE ( 'NONE', *, *, #185, .T. ) ;
#205 = ADVANCED_BREP_SHAPE_REPRESENTATION ( '5434-E0W', ( #161, #89 ), #198 ) ;
#206 = PERSON_AND_ORGANIZATION ( #162, #107 ) ;
#207 = ORIENTED_EDGE ( 'NONE', *, *, #110, .T. ) ;
#208 = LOCAL_TIME ( 11, 45, 39.00000000000000000, #163 ) ;
#209 = SPHERICAL_SURFACE ( 'NONE', #113, 7.000000000000000000 ) ;
#210 = PERSON_AND_ORGANIZATION ( #162, #107 ) ;
#211 = EDGE_CURVE ( 'NONE', #172, #153, #5, .T. ) ;
#212 = CIRCLE ( 'NONE', #35, 7.000000000000000000 ) ;
#213 = EDGE_LOOP ( 'NONE', ( #98, #84, #207, #9, #36 ) ) ;
#214 = APPROVAL_DATE_TIME ( #12, #67 ) ;
#215 = DIRECTION ( 'NONE',  ( 1.000000000000000000, 0.0000000000000000000, 0.0000000000000000000 ) ) ;
#216 = ORIENTED_EDGE ( 'NONE', *, *, #53, .T. ) ;
#217 = CARTESIAN_POINT ( 'NONE',  ( 0.0000000000000000000, 4.286263797015736600E-016, 1.000000000000000000 ) ) ;
#218 = DIRECTION ( 'NONE',  ( -0.0000000000000000000, -0.0000000000000000000, 1.000000000000000000 ) ) ;
#219 = CALENDAR_DATE ( 2015, 24, 2 ) ;
#220 = CARTESIAN_POINT ( 'NONE',  ( 0.0000000000000000000, 0.0000000000000000000, 9.017153270429325600 ) ) ;
#221 =( NAMED_UNIT ( * ) PLANE_ANGLE_UNIT ( ) SI_UNIT ( $, .RADIAN. ) );
ENDSEC;
END-ISO-10303-21;
