ISO-10303-21;
HEADER;
FILE_DESCRIPTION (( 'STEP AP203' ),
    '1' );
FILE_NAME ('Web Model 43818_43818.step',
    '2017-04-10T18:04:09',
    ( '' ),
    ( '' ),
    'SwSTEP 2.0',
    'SolidWorks 2016',
    '' );
FILE_SCHEMA (( 'CONFIG_CONTROL_DESIGN' ));
ENDSEC;

DATA;
#1 = DATE_AND_TIME ( #6, #104 ) ;
#2 = APPROVAL ( #23, 'UNSPECIFIED' ) ;
#3 = DIRECTION ( 'NONE',  ( 0.0000000000000000000, -1.000000000000000000, 0.0000000000000000000 ) ) ;
#4 = DIRECTION ( 'NONE',  ( -1.000000000000000000, -0.0000000000000000000, -0.0000000000000000000 ) ) ;
#5 = DIRECTION ( 'NONE',  ( -0.0000000000000000000, 1.000000000000000000, -0.0000000000000000000 ) ) ;
#6 = CALENDAR_DATE ( 2017, 10, 4 ) ;
#7 = CARTESIAN_POINT ( 'NONE',  ( 0.0000000000000000000, 0.0000000000000000000, 0.5000000000000000000 ) ) ;
#8 = DIRECTION ( 'NONE',  ( -0.0000000000000000000, -0.0000000000000000000, -1.000000000000000000 ) ) ;
#9 = CARTESIAN_POINT ( 'NONE',  ( -25.00000000000000000, 25.00000000000000000, 0.5000000000000000000 ) ) ;
#10 =( LENGTH_UNIT ( ) NAMED_UNIT ( * ) SI_UNIT ( .MILLI., .METRE. ) );
#11 = ORIENTED_EDGE ( 'NONE', *, *, #50, .F. ) ;
#12 = DIRECTION ( 'NONE',  ( 1.000000000000000000, 0.0000000000000000000, 0.0000000000000000000 ) ) ;
#13 = PERSON_AND_ORGANIZATION ( #118, #66 ) ;
#14 = VECTOR ( 'NONE', #109, 1000.000000000000000 ) ;
#15 = VERTEX_POINT ( 'NONE', #114 ) ;
#16 = VERTEX_POINT ( 'NONE', #201 ) ;
#17 = PERSON_AND_ORGANIZATION ( #118, #66 ) ;
#18 = CARTESIAN_POINT ( 'NONE',  ( 25.00000000000000000, 25.00000000000000000, 0.5000000000000000000 ) ) ;
#19 = LINE ( 'NONE', #73, #233 ) ;
#20 = CC_DESIGN_APPROVAL ( #2, ( #171 ) ) ;
#21 = CALENDAR_DATE ( 2017, 10, 4 ) ;
#22 = CARTESIAN_POINT ( 'NONE',  ( -25.00000000000000000, 25.00000000000000000, 0.5000000000000000000 ) ) ;
#23 = APPROVAL_STATUS ( 'not_yet_approved' ) ;
#24 = FACE_OUTER_BOUND ( 'NONE', #129, .T. ) ;
#25 = EDGE_CURVE ( 'NONE', #157, #196, #205, .T. ) ;
#26 = CC_DESIGN_PERSON_AND_ORGANIZATION_ASSIGNMENT ( #237, #79, ( #187 ) ) ;
#27 = PLANE ( 'NONE',  #207 ) ;
#28 = DIRECTION ( 'NONE',  ( -0.0000000000000000000, -0.0000000000000000000, -1.000000000000000000 ) ) ;
#29 = SHAPE_DEFINITION_REPRESENTATION ( #113, #169 ) ;
#30 = DIRECTION ( 'NONE',  ( 0.0000000000000000000, -0.0000000000000000000, 1.000000000000000000 ) ) ;
#31 = APPROVAL_STATUS ( 'not_yet_approved' ) ;
#32 = DATE_AND_TIME ( #85, #122 ) ;
#33 = AXIS2_PLACEMENT_3D ( 'NONE', #164, #216, #30 ) ;
#34 = APPROVAL_ROLE ( '' ) ;
#35 = APPROVAL_ROLE ( '' ) ;
#36 = LOCAL_TIME ( 14, 4, 9.000000000000000000, #96 ) ;
#37 = EDGE_LOOP ( 'NONE', ( #188, #206, #47, #39 ) ) ;
#38 = ADVANCED_FACE ( 'NONE', ( #111 ), #76, .F. ) ;
#39 = ORIENTED_EDGE ( 'NONE', *, *, #151, .T. ) ;
#40 = CARTESIAN_POINT ( 'NONE',  ( -25.00000000000000000, 25.00000000000000000, -0.5000000000000000000 ) ) ;
#41 = LINE ( 'NONE', #202, #190 ) ;
#42 = CC_DESIGN_DATE_AND_TIME_ASSIGNMENT ( #214, #192, ( #187 ) ) ;
#43 = AXIS2_PLACEMENT_3D ( 'NONE', #48, #191, #213 ) ;
#44 = VECTOR ( 'NONE', #124, 1000.000000000000000 ) ;
#45 = MECHANICAL_CONTEXT ( 'NONE', #228, 'mechanical' ) ;
#46 = ORIENTED_EDGE ( 'NONE', *, *, #50, .T. ) ;
#47 = ORIENTED_EDGE ( 'NONE', *, *, #163, .F. ) ;
#48 = CARTESIAN_POINT ( 'NONE',  ( 0.0000000000000000000, 0.0000000000000000000, -0.5000000000000000000 ) ) ;
#49 = PERSON_AND_ORGANIZATION_ROLE ( 'creator' ) ;
#50 = EDGE_CURVE ( 'NONE', #116, #15, #74, .T. ) ;
#51 = DIRECTION ( 'NONE',  ( 0.0000000000000000000, -1.000000000000000000, 0.0000000000000000000 ) ) ;
#52 = EDGE_LOOP ( 'NONE', ( #153, #132, #232, #46 ) ) ;
#53 = CC_DESIGN_APPROVAL ( #225, ( #187 ) ) ;
#54 = PLANE ( 'NONE',  #43 ) ;
#55 = PERSON_AND_ORGANIZATION ( #118, #66 ) ;
#56 = CLOSED_SHELL ( 'NONE', ( #167, #168, #38, #230, #101, #154 ) ) ;
#57 = CARTESIAN_POINT ( 'NONE',  ( -25.00000000000000000, -25.00000000000000000, -0.5000000000000000000 ) ) ;
#58 = VERTEX_POINT ( 'NONE', #134 ) ;
#59 = EDGE_CURVE ( 'NONE', #58, #116, #65, .T. ) ;
#60 = COORDINATED_UNIVERSAL_TIME_OFFSET ( 5, 0, .BEHIND. ) ;
#61 = PLANE ( 'NONE',  #33 ) ;
#62 = CARTESIAN_POINT ( 'NONE',  ( 25.00000000000000000, -25.00000000000000000, 0.5000000000000000000 ) ) ;
#63 = ORIENTED_EDGE ( 'NONE', *, *, #91, .T. ) ;
#64 = CARTESIAN_POINT ( 'NONE',  ( -25.00000000000000000, 25.00000000000000000, 0.5000000000000000000 ) ) ;
#65 = LINE ( 'NONE', #193, #212 ) ;
#66 = ORGANIZATION ( 'UNSPECIFIED', 'UNSPECIFIED', '' ) ;
#67 = PERSON_AND_ORGANIZATION ( #118, #66 ) ;
#68 = PERSON_AND_ORGANIZATION ( #118, #66 ) ;
#69 = ORIENTED_EDGE ( 'NONE', *, *, #25, .T. ) ;
#70 = PERSON_AND_ORGANIZATION_ROLE ( 'design_owner' ) ;
#71 = FACE_OUTER_BOUND ( 'NONE', #37, .T. ) ;
#72 = CC_DESIGN_PERSON_AND_ORGANIZATION_ASSIGNMENT ( #161, #204, ( #171 ) ) ;
#73 = CARTESIAN_POINT ( 'NONE',  ( -25.00000000000000000, -25.00000000000000000, 0.5000000000000000000 ) ) ;
#74 = LINE ( 'NONE', #22, #14 ) ;
#75 = DIRECTION ( 'NONE',  ( 1.000000000000000000, 0.0000000000000000000, -0.0000000000000000000 ) ) ;
#76 = PLANE ( 'NONE',  #107 ) ;
#77 = VECTOR ( 'NONE', #5, 1000.000000000000000 ) ;
#78 = CARTESIAN_POINT ( 'NONE',  ( 25.00000000000000000, 25.00000000000000000, -0.5000000000000000000 ) ) ;
#79 = PERSON_AND_ORGANIZATION_ROLE ( 'classification_officer' ) ;
#80 = CARTESIAN_POINT ( 'NONE',  ( 25.00000000000000000, -25.00000000000000000, -0.5000000000000000000 ) ) ;
#81 = CC_DESIGN_SECURITY_CLASSIFICATION ( #187, ( #171 ) ) ;
#82 = CARTESIAN_POINT ( 'NONE',  ( 25.00000000000000000, 25.00000000000000000, 0.5000000000000000000 ) ) ;
#83 = DIRECTION ( 'NONE',  ( 0.0000000000000000000, -1.000000000000000000, 0.0000000000000000000 ) ) ;
#84 = ORIENTED_EDGE ( 'NONE', *, *, #148, .F. ) ;
#85 = CALENDAR_DATE ( 2017, 10, 4 ) ;
#86 = FACE_OUTER_BOUND ( 'NONE', #112, .T. ) ;
#87 = ORIENTED_EDGE ( 'NONE', *, *, #155, .F. ) ;
#88 = ORIENTED_EDGE ( 'NONE', *, *, #163, .T. ) ;
#89 = APPROVAL_PERSON_ORGANIZATION ( #13, #2, #35 ) ;
#90 = APPROVAL_STATUS ( 'not_yet_approved' ) ;
#91 = EDGE_CURVE ( 'NONE', #58, #196, #177, .T. ) ;
#92 = LINE ( 'NONE', #18, #183 ) ;
#93 = CALENDAR_DATE ( 2017, 10, 4 ) ;
#94 = PRODUCT ( 'Web Model 43818_43818', 'Web Model 43818_43818', '', ( #45 ) ) ;
#95 = DIRECTION ( 'NONE',  ( 1.000000000000000000, 0.0000000000000000000, 0.0000000000000000000 ) ) ;
#96 = COORDINATED_UNIVERSAL_TIME_OFFSET ( 5, 0, .BEHIND. ) ;
#97 = DIRECTION ( 'NONE',  ( -0.0000000000000000000, 0.0000000000000000000, -1.000000000000000000 ) ) ;
#98 = CARTESIAN_POINT ( 'NONE',  ( 0.0000000000000000000, 0.0000000000000000000, 0.0000000000000000000 ) ) ;
#99 = APPROVAL ( #31, 'UNSPECIFIED' ) ;
#100 = CARTESIAN_POINT ( 'NONE',  ( -25.00000000000000000, 25.00000000000000000, -0.5000000000000000000 ) ) ;
#101 = ADVANCED_FACE ( 'NONE', ( #140 ), #105, .T. ) ;
#102 = EDGE_LOOP ( 'NONE', ( #203, #185, #172, #88 ) ) ;
#103 = DIRECTION ( 'NONE',  ( -0.0000000000000000000, 1.000000000000000000, -0.0000000000000000000 ) ) ;
#104 = LOCAL_TIME ( 14, 4, 9.000000000000000000, #174 ) ;
#105 = PLANE ( 'NONE',  #108 ) ;
#106 = ORIENTED_EDGE ( 'NONE', *, *, #136, .T. ) ;
#107 = AXIS2_PLACEMENT_3D ( 'NONE', #9, #75, #97 ) ;
#108 = AXIS2_PLACEMENT_3D ( 'NONE', #7, #126, #95 ) ;
#109 = DIRECTION ( 'NONE',  ( -0.0000000000000000000, -0.0000000000000000000, -1.000000000000000000 ) ) ;
#110 = DIRECTION ( 'NONE',  ( -0.0000000000000000000, -0.0000000000000000000, -1.000000000000000000 ) ) ;
#111 = FACE_OUTER_BOUND ( 'NONE', #52, .T. ) ;
#112 = EDGE_LOOP ( 'NONE', ( #69, #197, #236, #179 ) ) ;
#113 = PRODUCT_DEFINITION_SHAPE ( 'NONE', 'NONE',  #218 ) ;
#114 = CARTESIAN_POINT ( 'NONE',  ( -25.00000000000000000, 25.00000000000000000, -0.5000000000000000000 ) ) ;
#115 = AXIS2_PLACEMENT_3D ( 'NONE', #98, #219, #143 ) ;
#116 = VERTEX_POINT ( 'NONE', #170 ) ;
#117 = LINE ( 'NONE', #40, #150 ) ;
#118 = PERSON ( 'UNSPECIFIED', 'UNSPECIFIED', 'UNSPECIFIED', ('UNSPECIFIED'), ('UNSPECIFIED'), ('UNSPECIFIED') ) ;
#119 = ORIENTED_EDGE ( 'NONE', *, *, #136, .F. ) ;
#120 = SECURITY_CLASSIFICATION_LEVEL ( 'unclassified' ) ;
#121 = CARTESIAN_POINT ( 'NONE',  ( -25.00000000000000000, 25.00000000000000000, 0.5000000000000000000 ) ) ;
#122 = LOCAL_TIME ( 14, 4, 9.000000000000000000, #135 ) ;
#123 = LINE ( 'NONE', #128, #166 ) ;
#124 = DIRECTION ( 'NONE',  ( -1.000000000000000000, -0.0000000000000000000, -0.0000000000000000000 ) ) ;
#125 = ORIENTED_EDGE ( 'NONE', *, *, #59, .F. ) ;
#126 = DIRECTION ( 'NONE',  ( -0.0000000000000000000, 0.0000000000000000000, 1.000000000000000000 ) ) ;
#127 = UNCERTAINTY_MEASURE_WITH_UNIT (LENGTH_MEASURE( 1.000000000000000100E-005 ), #10, 'distance_accuracy_value', 'NONE');
#128 = CARTESIAN_POINT ( 'NONE',  ( -25.00000000000000000, -25.00000000000000000, -0.5000000000000000000 ) ) ;
#129 = EDGE_LOOP ( 'NONE', ( #106, #11, #125, #63 ) ) ;
#130 = APPROVAL_PERSON_ORGANIZATION ( #199, #225, #131 ) ;
#131 = APPROVAL_ROLE ( '' ) ;
#132 = ORIENTED_EDGE ( 'NONE', *, *, #151, .F. ) ;
#133 = DATE_AND_TIME ( #175, #36 ) ;
#134 = CARTESIAN_POINT ( 'NONE',  ( 25.00000000000000000, 25.00000000000000000, 0.5000000000000000000 ) ) ;
#135 = COORDINATED_UNIVERSAL_TIME_OFFSET ( 5, 0, .BEHIND. ) ;
#136 = EDGE_CURVE ( 'NONE', #196, #15, #139, .T. ) ;
#137 = ORIENTED_EDGE ( 'NONE', *, *, #25, .F. ) ;
#138 = COORDINATED_UNIVERSAL_TIME_OFFSET ( 5, 0, .BEHIND. ) ;
#139 = LINE ( 'NONE', #100, #44 ) ;
#140 = FACE_OUTER_BOUND ( 'NONE', #102, .T. ) ;
#141 = APPROVAL_DATE_TIME ( #133, #2 ) ;
#142 = CC_DESIGN_PERSON_AND_ORGANIZATION_ASSIGNMENT ( #55, #70, ( #94 ) ) ;
#143 = DIRECTION ( 'NONE',  ( 1.000000000000000000, 0.0000000000000000000, 0.0000000000000000000 ) ) ;
#144 = LOCAL_TIME ( 14, 4, 9.000000000000000000, #60 ) ;
#145 = EDGE_CURVE ( 'NONE', #116, #16, #184, .T. ) ;
#146 = VERTEX_POINT ( 'NONE', #57 ) ;
#147 = LINE ( 'NONE', #217, #209 ) ;
#148 = EDGE_CURVE ( 'NONE', #15, #146, #117, .T. ) ;
#149 = DIRECTION ( 'NONE',  ( -1.000000000000000000, 0.0000000000000000000, 0.0000000000000000000 ) ) ;
#150 = VECTOR ( 'NONE', #51, 1000.000000000000000 ) ;
#151 = EDGE_CURVE ( 'NONE', #16, #146, #147, .T. ) ;
#152 = EDGE_CURVE ( 'NONE', #173, #157, #41, .T. ) ;
#153 = ORIENTED_EDGE ( 'NONE', *, *, #148, .T. ) ;
#154 = ADVANCED_FACE ( 'NONE', ( #227 ), #54, .F. ) ;
#155 = EDGE_CURVE ( 'NONE', #146, #157, #123, .T. ) ;
#156 = VECTOR ( 'NONE', #28, 1000.000000000000000 ) ;
#157 = VERTEX_POINT ( 'NONE', #80 ) ;
#158 = AXIS2_PLACEMENT_3D ( 'NONE', #180, #149, #221 ) ;
#159 = APPLICATION_PROTOCOL_DEFINITION ( 'international standard', 'config_control_design', 1994, #228 ) ;
#160 =( NAMED_UNIT ( * ) PLANE_ANGLE_UNIT ( ) SI_UNIT ( $, .RADIAN. ) );
#161 = PERSON_AND_ORGANIZATION ( #118, #66 ) ;
#162 = APPROVAL_PERSON_ORGANIZATION ( #68, #99, #34 ) ;
#163 = EDGE_CURVE ( 'NONE', #16, #173, #19, .T. ) ;
#164 = CARTESIAN_POINT ( 'NONE',  ( -25.00000000000000000, -25.00000000000000000, 0.5000000000000000000 ) ) ;
#165 = DIRECTION ( 'NONE',  ( 1.000000000000000000, 0.0000000000000000000, 0.0000000000000000000 ) ) ;
#166 = VECTOR ( 'NONE', #165, 1000.000000000000000 ) ;
#167 = ADVANCED_FACE ( 'NONE', ( #86 ), #189, .F. ) ;
#168 = ADVANCED_FACE ( 'NONE', ( #24 ), #27, .F. ) ;
#169 = ADVANCED_BREP_SHAPE_REPRESENTATION ( 'Web Model 43818_43818', ( #181, #115 ), #215 ) ;
#170 = CARTESIAN_POINT ( 'NONE',  ( -25.00000000000000000, 25.00000000000000000, 0.5000000000000000000 ) ) ;
#171 = PRODUCT_DEFINITION_FORMATION_WITH_SPECIFIED_SOURCE ( 'ANY', '', #94, .NOT_KNOWN. ) ;
#172 = ORIENTED_EDGE ( 'NONE', *, *, #145, .T. ) ;
#173 = VERTEX_POINT ( 'NONE', #62 ) ;
#174 = COORDINATED_UNIVERSAL_TIME_OFFSET ( 5, 0, .BEHIND. ) ;
#175 = CALENDAR_DATE ( 2017, 10, 4 ) ;
#176 = CC_DESIGN_PERSON_AND_ORGANIZATION_ASSIGNMENT ( #17, #49, ( #171 ) ) ;
#177 = LINE ( 'NONE', #82, #156 ) ;
#178 = PERSON_AND_ORGANIZATION_ROLE ( 'creator' ) ;
#179 = ORIENTED_EDGE ( 'NONE', *, *, #152, .T. ) ;
#180 = CARTESIAN_POINT ( 'NONE',  ( 25.00000000000000000, 25.00000000000000000, 0.5000000000000000000 ) ) ;
#181 = MANIFOLD_SOLID_BREP ( 'Boss-Extrude1', #56 ) ;
#182 = APPLICATION_CONTEXT ( 'configuration controlled 3d designs of mechanical parts and assemblies' ) ;
#183 = VECTOR ( 'NONE', #103, 1000.000000000000000 ) ;
#184 = LINE ( 'NONE', #121, #186 ) ;
#185 = ORIENTED_EDGE ( 'NONE', *, *, #59, .T. ) ;
#186 = VECTOR ( 'NONE', #83, 1000.000000000000000 ) ;
#187 = SECURITY_CLASSIFICATION ( '', '', #120 ) ;
#188 = ORIENTED_EDGE ( 'NONE', *, *, #155, .T. ) ;
#189 = PLANE ( 'NONE',  #158 ) ;
#190 = VECTOR ( 'NONE', #110, 1000.000000000000000 ) ;
#191 = DIRECTION ( 'NONE',  ( -0.0000000000000000000, 0.0000000000000000000, 1.000000000000000000 ) ) ;
#192 = DATE_TIME_ROLE ( 'classification_date' ) ;
#193 = CARTESIAN_POINT ( 'NONE',  ( -25.00000000000000000, 25.00000000000000000, 0.5000000000000000000 ) ) ;
#194 = APPLICATION_PROTOCOL_DEFINITION ( 'international standard', 'config_control_design', 1994, #182 ) ;
#195 = PRODUCT_RELATED_PRODUCT_CATEGORY ( 'detail', '', ( #94 ) ) ;
#196 = VERTEX_POINT ( 'NONE', #222 ) ;
#197 = ORIENTED_EDGE ( 'NONE', *, *, #91, .F. ) ;
#198 =( NAMED_UNIT ( * ) SI_UNIT ( $, .STERADIAN. ) SOLID_ANGLE_UNIT ( ) );
#199 = PERSON_AND_ORGANIZATION ( #118, #66 ) ;
#200 = APPROVAL_DATE_TIME ( #1, #225 ) ;
#201 = CARTESIAN_POINT ( 'NONE',  ( -25.00000000000000000, -25.00000000000000000, 0.5000000000000000000 ) ) ;
#202 = CARTESIAN_POINT ( 'NONE',  ( 25.00000000000000000, -25.00000000000000000, 0.5000000000000000000 ) ) ;
#203 = ORIENTED_EDGE ( 'NONE', *, *, #211, .T. ) ;
#204 = PERSON_AND_ORGANIZATION_ROLE ( 'design_supplier' ) ;
#205 = LINE ( 'NONE', #78, #77 ) ;
#206 = ORIENTED_EDGE ( 'NONE', *, *, #152, .F. ) ;
#207 = AXIS2_PLACEMENT_3D ( 'NONE', #64, #3, #224 ) ;
#208 = DATE_AND_TIME ( #93, #220 ) ;
#209 = VECTOR ( 'NONE', #8, 1000.000000000000000 ) ;
#210 = EDGE_LOOP ( 'NONE', ( #137, #87, #84, #119 ) ) ;
#211 = EDGE_CURVE ( 'NONE', #173, #58, #92, .T. ) ;
#212 = VECTOR ( 'NONE', #4, 1000.000000000000000 ) ;
#213 = DIRECTION ( 'NONE',  ( 1.000000000000000000, 0.0000000000000000000, 0.0000000000000000000 ) ) ;
#214 = DATE_AND_TIME ( #21, #144 ) ;
#215 =( GEOMETRIC_REPRESENTATION_CONTEXT ( 3 ) GLOBAL_UNCERTAINTY_ASSIGNED_CONTEXT ( ( #127 ) ) GLOBAL_UNIT_ASSIGNED_CONTEXT ( ( #10, #160, #198 ) ) REPRESENTATION_CONTEXT ( 'NONE', 'WORKASPACE' ) );
#216 = DIRECTION ( 'NONE',  ( 0.0000000000000000000, 1.000000000000000000, 0.0000000000000000000 ) ) ;
#217 = CARTESIAN_POINT ( 'NONE',  ( -25.00000000000000000, -25.00000000000000000, 0.5000000000000000000 ) ) ;
#218 = PRODUCT_DEFINITION ( 'UNKNOWN', '', #171, #229 ) ;
#219 = DIRECTION ( 'NONE',  ( 0.0000000000000000000, 0.0000000000000000000, 1.000000000000000000 ) ) ;
#220 = LOCAL_TIME ( 14, 4, 9.000000000000000000, #138 ) ;
#221 = DIRECTION ( 'NONE',  ( 0.0000000000000000000, 0.0000000000000000000, 1.000000000000000000 ) ) ;
#222 = CARTESIAN_POINT ( 'NONE',  ( 25.00000000000000000, 25.00000000000000000, -0.5000000000000000000 ) ) ;
#223 = CC_DESIGN_DATE_AND_TIME_ASSIGNMENT ( #208, #235, ( #218 ) ) ;
#224 = DIRECTION ( 'NONE',  ( 0.0000000000000000000, -0.0000000000000000000, -1.000000000000000000 ) ) ;
#225 = APPROVAL ( #90, 'UNSPECIFIED' ) ;
#226 = APPROVAL_DATE_TIME ( #32, #99 ) ;
#227 = FACE_OUTER_BOUND ( 'NONE', #210, .T. ) ;
#228 = APPLICATION_CONTEXT ( 'configuration controlled 3d designs of mechanical parts and assemblies' ) ;
#229 = DESIGN_CONTEXT ( 'detailed design', #182, 'design' ) ;
#230 = ADVANCED_FACE ( 'NONE', ( #71 ), #61, .F. ) ;
#231 = CC_DESIGN_APPROVAL ( #99, ( #218 ) ) ;
#232 = ORIENTED_EDGE ( 'NONE', *, *, #145, .F. ) ;
#233 = VECTOR ( 'NONE', #12, 1000.000000000000000 ) ;
#234 = CC_DESIGN_PERSON_AND_ORGANIZATION_ASSIGNMENT ( #67, #178, ( #218 ) ) ;
#235 = DATE_TIME_ROLE ( 'creation_date' ) ;
#236 = ORIENTED_EDGE ( 'NONE', *, *, #211, .F. ) ;
#237 = PERSON_AND_ORGANIZATION ( #118, #66 ) ;
ENDSEC;
END-ISO-10303-21;
