ISO-10303-21;
HEADER;
FILE_DESCRIPTION (( 'STEP AP203' ),
    '1' );
FILE_NAME ('4354-E0W.STEP',
    '2008-10-14T20:56:16',
    ( 'Admin' ),
    ( 'Thorlabs, Inc.' ),
    'SwSTEP 2.0',
    'SolidWorks 2007',
    '' );
FILE_SCHEMA (( 'CONFIG_CONTROL_DESIGN' ));
ENDSEC;

DATA;
#1 = EDGE_LOOP ( 'NONE', ( #5, #6 ) ) ;
#2 = ORIENTED_EDGE ( 'NONE', *, *, #59, .F. ) ;
#3 = ADVANCED_FACE ( 'NONE', ( #60 ), #47, .T. ) ;
#4 = ORIENTED_EDGE ( 'NONE', *, *, #98, .F. ) ;
#5 = ORIENTED_EDGE ( 'NONE', *, *, #19, .F. ) ;
#6 = ORIENTED_EDGE ( 'NONE', *, *, #46, .F. ) ;
#7 = CLOSED_SHELL ( 'NONE', ( #53, #100, #55, #3, #51 ) ) ;
#8 = VERTEX_POINT ( 'NONE', #102 ) ;
#9 = ORIENTED_EDGE ( 'NONE', *, *, #23, .T. ) ;
#10 = ORIENTED_EDGE ( 'NONE', *, *, #23, .F. ) ;
#11 = AXIS2_PLACEMENT_3D ( 'NONE', #81, #26, #63 ) ;
#12 = CIRCLE ( 'NONE', #11, 25.40000000000000200 ) ;
#13 = ORIENTED_EDGE ( 'NONE', *, *, #98, .T. ) ;
#14 = ORIENTED_EDGE ( 'NONE', *, *, #22, .F. ) ;
#15 = EDGE_CURVE ( 'NONE', #16, #65, #12, .T. ) ;
#16 = VERTEX_POINT ( 'NONE', #62 ) ;
#17 = EDGE_LOOP ( 'NONE', ( #18, #13, #10, #14, #24 ) ) ;
#18 = ORIENTED_EDGE ( 'NONE', *, *, #19, .T. ) ;
#19 = EDGE_CURVE ( 'NONE', #20, #21, #91, .T. ) ;
#20 = VERTEX_POINT ( 'NONE', #86 ) ;
#21 = VERTEX_POINT ( 'NONE', #85 ) ;
#22 = EDGE_CURVE ( 'NONE', #65, #8, #97, .T. ) ;
#23 = EDGE_CURVE ( 'NONE', #8, #84, #42, .T. ) ;
#24 = ORIENTED_EDGE ( 'NONE', *, *, #25, .F. ) ;
#25 = EDGE_CURVE ( 'NONE', #20, #65, #43, .T. ) ;
#26 = DIRECTION ( 'NONE',  ( 0.0000000000000000000, 0.0000000000000000000, 1.000000000000000000 ) ) ;
#27 = ORIENTED_EDGE ( 'NONE', *, *, #83, .F. ) ;
#28 = DIRECTION ( 'NONE',  ( 1.000000000000000000, 0.0000000000000000000, 0.0000000000000000000 ) ) ;
#29 = DIRECTION ( 'NONE',  ( 0.0000000000000000000, 0.0000000000000000000, 1.000000000000000000 ) ) ;
#30 = CARTESIAN_POINT ( 'NONE',  ( 0.0000000000000000000, 0.0000000000000000000, 1.750000000000000000 ) ) ;
#31 = PERSON_AND_ORGANIZATION ( #147, #146 ) ;
#32 = DIRECTION ( 'NONE',  ( -1.224646799147353200E-016, -1.000000000000000000, 0.0000000000000000000 ) ) ;
#33 = DIRECTION ( 'NONE',  ( -1.000000000000000000, 1.224646799147353200E-016, 0.0000000000000000000 ) ) ;
#34 = AXIS2_PLACEMENT_3D ( 'NONE', #40, #33, #32 ) ;
#35 = CIRCLE ( 'NONE', #34, 34.50000000000000000 ) ;
#36 = PERSON_AND_ORGANIZATION_ROLE ( 'design_owner' ) ;
#37 = DIRECTION ( 'NONE',  ( 1.000000000000000000, 0.0000000000000000000, 0.0000000000000000000 ) ) ;
#38 = DIRECTION ( 'NONE',  ( 0.0000000000000000000, 0.0000000000000000000, 1.000000000000000000 ) ) ;
#39 = CARTESIAN_POINT ( 'NONE',  ( 0.0000000000000000000, 0.0000000000000000000, -1.750000000000000000 ) ) ;
#40 = CARTESIAN_POINT ( 'NONE',  ( 0.0000000000000000000, 0.0000000000000000000, 36.25000000000000700 ) ) ;
#41 = CARTESIAN_POINT ( 'NONE',  ( 0.0000000000000000000, 0.0000000000000000000, 12.90283743149930900 ) ) ;
#42 = CIRCLE ( 'NONE', #72, 25.40000000000000200 ) ;
#43 = LINE ( 'NONE', #69, #68 ) ;
#44 = DIRECTION ( 'NONE',  ( 1.000000000000000000, 0.0000000000000000000, 0.0000000000000000000 ) ) ;
#45 = ORIENTED_EDGE ( 'NONE', *, *, #46, .T. ) ;
#46 = EDGE_CURVE ( 'NONE', #21, #20, #66, .T. ) ;
#47 = CYLINDRICAL_SURFACE ( 'NONE', #48, 25.39999999999999900 ) ;
#48 = AXIS2_PLACEMENT_3D ( 'NONE', #30, #29, #28 ) ;
#49 = ORIENTED_EDGE ( 'NONE', *, *, #25, .T. ) ;
#50 = ORIENTED_EDGE ( 'NONE', *, *, #15, .F. ) ;
#51 = ADVANCED_FACE ( 'NONE', ( #79 ), #74, .F. ) ;
#52 = EDGE_CURVE ( 'NONE', #56, #16, #35, .T. ) ;
#53 = ADVANCED_FACE ( 'NONE', ( #124 ), #117, .T. ) ;
#54 = ORIENTED_EDGE ( 'NONE', *, *, #83, .T. ) ;
#55 = ADVANCED_FACE ( 'NONE', ( #111 ), #123, .F. ) ;
#56 = VERTEX_POINT ( 'NONE', #125 ) ;
#57 = ORIENTED_EDGE ( 'NONE', *, *, #52, .T. ) ;
#58 = ORIENTED_EDGE ( 'NONE', *, *, #22, .T. ) ;
#59 = EDGE_CURVE ( 'NONE', #56, #8, #115, .T. ) ;
#60 = FACE_OUTER_BOUND ( 'NONE', #93, .T. ) ;
#61 = MANIFOLD_SOLID_BREP ( 'NONE', #7 ) ;
#62 = CARTESIAN_POINT ( 'NONE',  ( -3.110602869834277700E-015, -25.39999999999999900, 12.90283743149930700 ) ) ;
#63 = DIRECTION ( 'NONE',  ( 1.000000000000000000, 0.0000000000000000000, 0.0000000000000000000 ) ) ;
#64 = EDGE_LOOP ( 'NONE', ( #80, #101, #9, #54 ) ) ;
#65 = VERTEX_POINT ( 'NONE', #138 ) ;
#66 = CIRCLE ( 'NONE', #78, 25.39999999999999900 ) ;
#67 = DIRECTION ( 'NONE',  ( 0.0000000000000000000, 0.0000000000000000000, 1.000000000000000000 ) ) ;
#68 = VECTOR ( 'NONE', #67, 1000.000000000000000 ) ;
#69 = CARTESIAN_POINT ( 'NONE',  ( 25.39999999999999900, 0.0000000000000000000, 1.750000000000000000 ) ) ;
#70 = DIRECTION ( 'NONE',  ( 1.000000000000000000, 0.0000000000000000000, 0.0000000000000000000 ) ) ;
#71 = DIRECTION ( 'NONE',  ( 0.0000000000000000000, 0.0000000000000000000, 1.000000000000000000 ) ) ;
#72 = AXIS2_PLACEMENT_3D ( 'NONE', #41, #71, #70 ) ;
#73 = AXIS2_PLACEMENT_3D ( 'NONE', #39, #38, #37 ) ;
#74 = PLANE ( 'NONE',  #73 ) ;
#75 = DIRECTION ( 'NONE',  ( 1.000000000000000000, 0.0000000000000000000, 0.0000000000000000000 ) ) ;
#76 = DIRECTION ( 'NONE',  ( 0.0000000000000000000, 0.0000000000000000000, 1.000000000000000000 ) ) ;
#77 = CARTESIAN_POINT ( 'NONE',  ( 0.0000000000000000000, 0.0000000000000000000, -1.750000000000000000 ) ) ;
#78 = AXIS2_PLACEMENT_3D ( 'NONE', #77, #76, #75 ) ;
#79 = FACE_OUTER_BOUND ( 'NONE', #1, .T. ) ;
#80 = ORIENTED_EDGE ( 'NONE', *, *, #52, .F. ) ;
#81 = CARTESIAN_POINT ( 'NONE',  ( 0.0000000000000000000, 0.0000000000000000000, 12.90283743149930900 ) ) ;
#82 = EDGE_LOOP ( 'NONE', ( #2, #57, #99, #58 ) ) ;
#83 = EDGE_CURVE ( 'NONE', #84, #16, #109, .T. ) ;
#84 = VERTEX_POINT ( 'NONE', #110 ) ;
#85 = CARTESIAN_POINT ( 'NONE',  ( -25.39999999999999900, 3.110602869834276900E-015, -1.750000000000000000 ) ) ;
#86 = CARTESIAN_POINT ( 'NONE',  ( 25.39999999999999900, 0.0000000000000000000, -1.750000000000000000 ) ) ;
#87 = DIRECTION ( 'NONE',  ( 1.000000000000000000, 0.0000000000000000000, 0.0000000000000000000 ) ) ;
#88 = DIRECTION ( 'NONE',  ( 0.0000000000000000000, 0.0000000000000000000, 1.000000000000000000 ) ) ;
#89 = CARTESIAN_POINT ( 'NONE',  ( 0.0000000000000000000, 0.0000000000000000000, -1.750000000000000000 ) ) ;
#90 = AXIS2_PLACEMENT_3D ( 'NONE', #89, #88, #87 ) ;
#91 = CIRCLE ( 'NONE', #90, 25.39999999999999900 ) ;
#92 = CC_DESIGN_PERSON_AND_ORGANIZATION_ASSIGNMENT ( #31, #36, ( #148 ) ) ;
#93 = EDGE_LOOP ( 'NONE', ( #4, #45, #49, #50, #27 ) ) ;
#94 = DIRECTION ( 'NONE',  ( 0.0000000000000000000, 0.0000000000000000000, 1.000000000000000000 ) ) ;
#95 = CARTESIAN_POINT ( 'NONE',  ( 0.0000000000000000000, 0.0000000000000000000, 12.90283743149930900 ) ) ;
#96 = AXIS2_PLACEMENT_3D ( 'NONE', #95, #94, #44 ) ;
#97 = CIRCLE ( 'NONE', #96, 25.40000000000000200 ) ;
#98 = EDGE_CURVE ( 'NONE', #21, #84, #122, .T. ) ;
#99 = ORIENTED_EDGE ( 'NONE', *, *, #15, .T. ) ;
#100 = ADVANCED_FACE ( 'NONE', ( #119 ), #152, .F. ) ;
#101 = ORIENTED_EDGE ( 'NONE', *, *, #59, .T. ) ;
#102 = CARTESIAN_POINT ( 'NONE',  ( 0.0000000000000000000, 25.39999999999999900, 12.90283743149930700 ) ) ;
#103 = CARTESIAN_POINT ( 'NONE',  ( 0.0000000000000000000, 0.0000000000000000000, 36.25000000000000700 ) ) ;
#104 = AXIS2_PLACEMENT_3D ( 'NONE', #103, #129, #128 ) ;
#105 = DIRECTION ( 'NONE',  ( 1.000000000000000000, 0.0000000000000000000, 0.0000000000000000000 ) ) ;
#106 = DIRECTION ( 'NONE',  ( 0.0000000000000000000, 0.0000000000000000000, 1.000000000000000000 ) ) ;
#107 =( LENGTH_UNIT ( ) NAMED_UNIT ( * ) SI_UNIT ( .MILLI., .METRE. ) );
#108 = AXIS2_PLACEMENT_3D ( 'NONE', #127, #106, #105 ) ;
#109 = CIRCLE ( 'NONE', #108, 25.40000000000000200 ) ;
#110 = CARTESIAN_POINT ( 'NONE',  ( -25.40000000000000600, 3.110602869834277700E-015, 12.90283743149930900 ) ) ;
#111 = FACE_OUTER_BOUND ( 'NONE', #64, .T. ) ;
#112 =( GEOMETRIC_REPRESENTATION_CONTEXT ( 3 ) GLOBAL_UNCERTAINTY_ASSIGNED_CONTEXT ( ( #143 ) ) GLOBAL_UNIT_ASSIGNED_CONTEXT ( ( #107, #131, #130 ) ) REPRESENTATION_CONTEXT ( 'NONE', 'WORKASPACE' ) );
#113 = DIRECTION ( 'NONE',  ( 0.0000000000000000000, 0.0000000000000000000, 1.000000000000000000 ) ) ;
#114 = AXIS2_PLACEMENT_3D ( 'NONE', #137, #133, #126 ) ;
#115 = CIRCLE ( 'NONE', #114, 34.50000000000000000 ) ;
#116 = CARTESIAN_POINT ( 'NONE',  ( 0.0000000000000000000, 0.0000000000000000000, 1.750000000000000000 ) ) ;
#117 = CYLINDRICAL_SURFACE ( 'NONE', #151, 25.39999999999999900 ) ;
#118 = DIRECTION ( 'NONE',  ( 1.000000000000000000, 0.0000000000000000000, 0.0000000000000000000 ) ) ;
#119 = FACE_OUTER_BOUND ( 'NONE', #82, .T. ) ;
#120 = DIRECTION ( 'NONE',  ( 0.0000000000000000000, 0.0000000000000000000, 1.000000000000000000 ) ) ;
#121 = CARTESIAN_POINT ( 'NONE',  ( -25.39999999999999900, 3.110602869834276900E-015, 1.750000000000000000 ) ) ;
#122 = LINE ( 'NONE', #121, #153 ) ;
#123 = SPHERICAL_SURFACE ( 'NONE', #104, 34.50000000000000000 ) ;
#124 = FACE_OUTER_BOUND ( 'NONE', #17, .T. ) ;
#125 = CARTESIAN_POINT ( 'NONE',  ( 0.0000000000000000000, 2.112515728529184500E-015, 1.750000000000001600 ) ) ;
#126 = DIRECTION ( 'NONE',  ( 0.0000000000000000000, 0.0000000000000000000, -1.000000000000000000 ) ) ;
#127 = CARTESIAN_POINT ( 'NONE',  ( 0.0000000000000000000, 0.0000000000000000000, 12.90283743149930900 ) ) ;
#128 = DIRECTION ( 'NONE',  ( 0.0000000000000000000, 1.000000000000000000, 0.0000000000000000000 ) ) ;
#129 = DIRECTION ( 'NONE',  ( -1.000000000000000000, 0.0000000000000000000, 0.0000000000000000000 ) ) ;
#130 =( NAMED_UNIT ( * ) SI_UNIT ( $, .STERADIAN. ) SOLID_ANGLE_UNIT ( ) );
#131 =( NAMED_UNIT ( * ) PLANE_ANGLE_UNIT ( ) SI_UNIT ( $, .RADIAN. ) );
#132 = DIRECTION ( 'NONE',  ( 1.000000000000000000, 0.0000000000000000000, 0.0000000000000000000 ) ) ;
#133 = DIRECTION ( 'NONE',  ( 1.000000000000000000, 0.0000000000000000000, 0.0000000000000000000 ) ) ;
#134 = DIRECTION ( 'NONE',  ( 0.0000000000000000000, 0.0000000000000000000, 1.000000000000000000 ) ) ;
#135 = CARTESIAN_POINT ( 'NONE',  ( 0.0000000000000000000, 0.0000000000000000000, 0.0000000000000000000 ) ) ;
#136 = AXIS2_PLACEMENT_3D ( 'NONE', #135, #134, #118 ) ;
#137 = CARTESIAN_POINT ( 'NONE',  ( 0.0000000000000000000, 0.0000000000000000000, 36.25000000000000700 ) ) ;
#138 = CARTESIAN_POINT ( 'NONE',  ( 25.40000000000000600, 0.0000000000000000000, 12.90283743149930900 ) ) ;
#139 = DIRECTION ( 'NONE',  ( 0.0000000000000000000, 1.000000000000000000, 0.0000000000000000000 ) ) ;
#140 = DIRECTION ( 'NONE',  ( -1.000000000000000000, 0.0000000000000000000, 0.0000000000000000000 ) ) ;
#141 = CARTESIAN_POINT ( 'NONE',  ( 0.0000000000000000000, 0.0000000000000000000, 36.25000000000000700 ) ) ;
#142 = AXIS2_PLACEMENT_3D ( 'NONE', #141, #140, #139 ) ;
#143 = UNCERTAINTY_MEASURE_WITH_UNIT (LENGTH_MEASURE( 1.000000000000000100E-005 ), #107, 'distance_accuracy_value', 'NONE');
#144 = ADVANCED_BREP_SHAPE_REPRESENTATION ( '4354-E0W', ( #61, #136 ), #112 ) ;
#145 = APPLICATION_CONTEXT ( 'configuration controlled 3d designs of mechanical parts and assemblies' ) ;
#146 = ORGANIZATION ( 'UNSPECIFIED', 'UNSPECIFIED', '' ) ;
#147 = PERSON ( 'UNSPECIFIED', 'UNSPECIFIED', 'UNSPECIFIED', ('UNSPECIFIED'), ('UNSPECIFIED'), ('UNSPECIFIED') ) ;
#148 = PRODUCT ( '4354-E0W', '4354-E0W', '', ( #149 ) ) ;
#149 = MECHANICAL_CONTEXT ( 'NONE', #145, 'mechanical' ) ;
#150 = APPLICATION_PROTOCOL_DEFINITION ( 'international standard', 'config_control_design', 1994, #145 ) ;
#151 = AXIS2_PLACEMENT_3D ( 'NONE', #116, #113, #132 ) ;
#152 = SPHERICAL_SURFACE ( 'NONE', #142, 34.50000000000000000 ) ;
#153 = VECTOR ( 'NONE', #120, 1000.000000000000000 ) ;
#154 = CC_DESIGN_APPROVAL ( #171, ( #199 ) ) ;
#155 = APPROVAL_DATE_TIME ( #181, #171 ) ;
#156 = APPLICATION_CONTEXT ( 'configuration controlled 3d designs of mechanical parts and assemblies' ) ;
#157 = DATE_AND_TIME ( #158, #159 ) ;
#158 = CALENDAR_DATE ( 2008, 14, 10 ) ;
#159 = LOCAL_TIME ( 16, 56, 16.00000000000000000, #179 ) ;
#160 = SHAPE_DEFINITION_REPRESENTATION ( #161, #144 ) ;
#161 = PRODUCT_DEFINITION_SHAPE ( 'NONE', 'NONE',  #180 ) ;
#162 = PRODUCT_RELATED_PRODUCT_CATEGORY ( 'detail', '', ( #148 ) ) ;
#163 = APPROVAL ( #191, 'UNSPECIFIED' ) ;
#164 = DATE_AND_TIME ( #202, #165 ) ;
#165 = LOCAL_TIME ( 16, 56, 16.00000000000000000, #205 ) ;
#166 = APPROVAL_STATUS ( 'not_yet_approved' ) ;
#167 = PERSON_AND_ORGANIZATION ( #147, #146 ) ;
#168 = CC_DESIGN_DATE_AND_TIME_ASSIGNMENT ( #170, #169, ( #208 ) ) ;
#169 = DATE_TIME_ROLE ( 'classification_date' ) ;
#170 = DATE_AND_TIME ( #203, #204 ) ;
#171 = APPROVAL ( #172, 'UNSPECIFIED' ) ;
#172 = APPROVAL_STATUS ( 'not_yet_approved' ) ;
#173 = PERSON_AND_ORGANIZATION ( #147, #146 ) ;
#174 = DESIGN_CONTEXT ( 'detailed design', #156, 'design' ) ;
#175 = CC_DESIGN_PERSON_AND_ORGANIZATION_ASSIGNMENT ( #206, #176, ( #180 ) ) ;
#176 = PERSON_AND_ORGANIZATION_ROLE ( 'creator' ) ;
#177 = APPROVAL_PERSON_ORGANIZATION ( #207, #163, #190 ) ;
#178 = DATE_TIME_ROLE ( 'creation_date' ) ;
#179 = COORDINATED_UNIVERSAL_TIME_OFFSET ( 5, 0, .BEHIND. ) ;
#180 = PRODUCT_DEFINITION ( 'UNKNOWN', '', #199, #174 ) ;
#181 = DATE_AND_TIME ( #182, #183 ) ;
#182 = CALENDAR_DATE ( 2008, 14, 10 ) ;
#183 = LOCAL_TIME ( 16, 56, 16.00000000000000000, #214 ) ;
#184 = CC_DESIGN_APPROVAL ( #196, ( #208 ) ) ;
#185 = APPROVAL_DATE_TIME ( #193, #196 ) ;
#186 = CALENDAR_DATE ( 2008, 14, 10 ) ;
#187 = LOCAL_TIME ( 16, 56, 16.00000000000000000, #188 ) ;
#188 = COORDINATED_UNIVERSAL_TIME_OFFSET ( 5, 0, .BEHIND. ) ;
#189 = CC_DESIGN_PERSON_AND_ORGANIZATION_ASSIGNMENT ( #219, #218, ( #199 ) ) ;
#190 = APPROVAL_ROLE ( '' ) ;
#191 = APPROVAL_STATUS ( 'not_yet_approved' ) ;
#192 = APPLICATION_PROTOCOL_DEFINITION ( 'international standard', 'config_control_design', 1994, #156 ) ;
#193 = DATE_AND_TIME ( #186, #187 ) ;
#194 = APPROVAL_PERSON_ORGANIZATION ( #167, #196, #195 ) ;
#195 = APPROVAL_ROLE ( '' ) ;
#196 = APPROVAL ( #166, 'UNSPECIFIED' ) ;
#197 = CC_DESIGN_APPROVAL ( #163, ( #180 ) ) ;
#198 = APPROVAL_DATE_TIME ( #164, #163 ) ;
#199 = PRODUCT_DEFINITION_FORMATION_WITH_SPECIFIED_SOURCE ( 'ANY', '', #148, .NOT_KNOWN. ) ;
#200 = CC_DESIGN_DATE_AND_TIME_ASSIGNMENT ( #157, #178, ( #180 ) ) ;
#201 = PERSON_AND_ORGANIZATION ( #147, #146 ) ;
#202 = CALENDAR_DATE ( 2008, 14, 10 ) ;
#203 = CALENDAR_DATE ( 2008, 14, 10 ) ;
#204 = LOCAL_TIME ( 16, 56, 16.00000000000000000, #210 ) ;
#205 = COORDINATED_UNIVERSAL_TIME_OFFSET ( 5, 0, .BEHIND. ) ;
#206 = PERSON_AND_ORGANIZATION ( #147, #146 ) ;
#207 = PERSON_AND_ORGANIZATION ( #147, #146 ) ;
#208 = SECURITY_CLASSIFICATION ( '', '', #209 ) ;
#209 = SECURITY_CLASSIFICATION_LEVEL ( 'unclassified' ) ;
#210 = COORDINATED_UNIVERSAL_TIME_OFFSET ( 5, 0, .BEHIND. ) ;
#211 = CC_DESIGN_PERSON_AND_ORGANIZATION_ASSIGNMENT ( #213, #212, ( #208 ) ) ;
#212 = PERSON_AND_ORGANIZATION_ROLE ( 'classification_officer' ) ;
#213 = PERSON_AND_ORGANIZATION ( #147, #146 ) ;
#214 = COORDINATED_UNIVERSAL_TIME_OFFSET ( 5, 0, .BEHIND. ) ;
#215 = APPROVAL_PERSON_ORGANIZATION ( #173, #171, #216 ) ;
#216 = APPROVAL_ROLE ( '' ) ;
#217 = CC_DESIGN_SECURITY_CLASSIFICATION ( #208, ( #199 ) ) ;
#218 = PERSON_AND_ORGANIZATION_ROLE ( 'design_supplier' ) ;
#219 = PERSON_AND_ORGANIZATION ( #147, #146 ) ;
#220 = CC_DESIGN_PERSON_AND_ORGANIZATION_ASSIGNMENT ( #201, #221, ( #199 ) ) ;
#221 = PERSON_AND_ORGANIZATION_ROLE ( 'creator' ) ;
ENDSEC;
END-ISO-10303-21;
