ISO-10303-21;
HEADER;
FILE_DESCRIPTION (( 'STEP AP203' ),
    '1' );
FILE_NAME ('43631_Default.step',
    '2017-04-12T17:33:14',
    ( '' ),
    ( '' ),
    'SwSTEP 2.0',
    'SolidWorks 2016',
    '' );
FILE_SCHEMA (( 'CONFIG_CONTROL_DESIGN' ));
ENDSEC;

DATA;
#1 =( NAMED_UNIT ( * ) PLANE_ANGLE_UNIT ( ) SI_UNIT ( $, .RADIAN. ) );
#2 = ORIENTED_EDGE ( 'NONE', *, *, #159, .F. ) ;
#3 = CARTESIAN_POINT ( 'NONE',  ( 0.0000000000000000000, 0.0000000000000000000, 0.0000000000000000000 ) ) ;
#4 = SECURITY_CLASSIFICATION ( '', '', #123 ) ;
#5 = FACE_OUTER_BOUND ( 'NONE', #45, .T. ) ;
#6 = ADVANCED_BREP_SHAPE_REPRESENTATION ( '43631_Default', ( #150, #153 ), #82 ) ;
#7 = CC_DESIGN_PERSON_AND_ORGANIZATION_ASSIGNMENT ( #43, #34, ( #173 ) ) ;
#8 = CIRCLE ( 'NONE', #127, 6.375000000000000000 ) ;
#9 = DIRECTION ( 'NONE',  ( 0.0000000000000000000, 0.0000000000000000000, 1.000000000000000000 ) ) ;
#10 = ORIENTED_EDGE ( 'NONE', *, *, #165, .T. ) ;
#11 = CC_DESIGN_SECURITY_CLASSIFICATION ( #4, ( #173 ) ) ;
#12 = APPROVAL_ROLE ( '' ) ;
#13 = CC_DESIGN_PERSON_AND_ORGANIZATION_ASSIGNMENT ( #132, #76, ( #173 ) ) ;
#14 = DATE_TIME_ROLE ( 'creation_date' ) ;
#15 = LOCAL_TIME ( 13, 33, 14.00000000000000000, #32 ) ;
#16 = CARTESIAN_POINT ( 'NONE',  ( 6.375000000000000000, 7.807123344564375600E-016, 0.5000000000000000000 ) ) ;
#17 = EDGE_CURVE ( 'NONE', #26, #31, #8, .T. ) ;
#18 = CARTESIAN_POINT ( 'NONE',  ( 0.0000000000000000000, 0.0000000000000000000, -0.5000000000000000000 ) ) ;
#19 = VERTEX_POINT ( 'NONE', #83 ) ;
#20 = DIRECTION ( 'NONE',  ( 1.000000000000000000, 0.0000000000000000000, -0.0000000000000000000 ) ) ;
#21 = ORIENTED_EDGE ( 'NONE', *, *, #58, .F. ) ;
#22 = AXIS2_PLACEMENT_3D ( 'NONE', #37, #106, #111 ) ;
#23 = ORIENTED_EDGE ( 'NONE', *, *, #164, .F. ) ;
#24 = APPROVAL ( #122, 'UNSPECIFIED' ) ;
#26 = VERTEX_POINT ( 'NONE', #155 ) ;
#25 = APPROVAL_PERSON_ORGANIZATION ( #142, #24, #12 ) ;
#27 = CARTESIAN_POINT ( 'NONE',  ( 0.0000000000000000000, 0.0000000000000000000, 0.5000000000000000000 ) ) ;
#28 = APPROVAL ( #57, 'UNSPECIFIED' ) ;
#29 = ORIENTED_EDGE ( 'NONE', *, *, #159, .T. ) ;
#30 = PRODUCT_DEFINITION_SHAPE ( 'NONE', 'NONE',  #124 ) ;
#31 = VERTEX_POINT ( 'NONE', #136 ) ;
#33 = CIRCLE ( 'NONE', #141, 6.375000000000000000 ) ;
#32 = COORDINATED_UNIVERSAL_TIME_OFFSET ( 5, 0, .BEHIND. ) ;
#34 = PERSON_AND_ORGANIZATION_ROLE ( 'design_supplier' ) ;
#35 = PRODUCT ( '43631_Default', '43631_Default', '', ( #119 ) ) ;
#36 = VECTOR ( 'NONE', #90, 1000.000000000000000 ) ;
#37 = CARTESIAN_POINT ( 'NONE',  ( 0.0000000000000000000, 0.0000000000000000000, 0.5000000000000000000 ) ) ;
#38 = APPLICATION_CONTEXT ( 'configuration controlled 3d designs of mechanical parts and assemblies' ) ;
#39 = CC_DESIGN_APPROVAL ( #24, ( #4 ) ) ;
#40 = APPROVAL_PERSON_ORGANIZATION ( #121, #134, #65 ) ;
#41 = CIRCLE ( 'NONE', #46, 6.375000000000000000 ) ;
#42 = SHAPE_DEFINITION_REPRESENTATION ( #30, #6 ) ;
#44 = COORDINATED_UNIVERSAL_TIME_OFFSET ( 5, 0, .BEHIND. ) ;
#43 = PERSON_AND_ORGANIZATION ( #137, #113 ) ;
#45 = EDGE_LOOP ( 'NONE', ( #115, #71 ) ) ;
#46 = AXIS2_PLACEMENT_3D ( 'NONE', #128, #138, #144 ) ;
#47 = DATE_AND_TIME ( #64, #175 ) ;
#48 = CC_DESIGN_PERSON_AND_ORGANIZATION_ASSIGNMENT ( #167, #66, ( #35 ) ) ;
#49 = LOCAL_TIME ( 13, 33, 14.00000000000000000, #55 ) ;
#50 = CARTESIAN_POINT ( 'NONE',  ( 0.0000000000000000000, 0.0000000000000000000, -0.5000000000000000000 ) ) ;
#51 = PERSON_AND_ORGANIZATION_ROLE ( 'classification_officer' ) ;
#52 = ORIENTED_EDGE ( 'NONE', *, *, #17, .T. ) ;
#53 = CYLINDRICAL_SURFACE ( 'NONE', #22, 6.375000000000000000 ) ;
#54 = CARTESIAN_POINT ( 'NONE',  ( 0.0000000000000000000, 0.0000000000000000000, 0.5000000000000000000 ) ) ;
#55 = COORDINATED_UNIVERSAL_TIME_OFFSET ( 5, 0, .BEHIND. ) ;
#56 = CC_DESIGN_APPROVAL ( #28, ( #173 ) ) ;
#57 = APPROVAL_STATUS ( 'not_yet_approved' ) ;
#58 = EDGE_CURVE ( 'NONE', #19, #170, #41, .T. ) ;
#59 = VECTOR ( 'NONE', #114, 1000.000000000000000 ) ;
#60 = EDGE_LOOP ( 'NONE', ( #98, #21, #29, #139 ) ) ;
#61 = APPLICATION_PROTOCOL_DEFINITION ( 'international standard', 'config_control_design', 1994, #147 ) ;
#62 = DIRECTION ( 'NONE',  ( 1.000000000000000000, 0.0000000000000000000, 0.0000000000000000000 ) ) ;
#63 = APPROVAL_PERSON_ORGANIZATION ( #86, #28, #109 ) ;
#64 = CALENDAR_DATE ( 2017, 12, 4 ) ;
#65 = APPROVAL_ROLE ( '' ) ;
#66 = PERSON_AND_ORGANIZATION_ROLE ( 'design_owner' ) ;
#67 = DATE_AND_TIME ( #103, #101 ) ;
#68 = CC_DESIGN_PERSON_AND_ORGANIZATION_ASSIGNMENT ( #116, #87, ( #124 ) ) ;
#69 = ADVANCED_FACE ( 'NONE', ( #169 ), #53, .T. ) ;
#70 = CALENDAR_DATE ( 2017, 12, 4 ) ;
#71 = ORIENTED_EDGE ( 'NONE', *, *, #17, .F. ) ;
#72 = DIRECTION ( 'NONE',  ( 1.000000000000000000, 0.0000000000000000000, 0.0000000000000000000 ) ) ;
#73 = EDGE_LOOP ( 'NONE', ( #23, #10, #52, #2 ) ) ;
#74 = PERSON_AND_ORGANIZATION ( #137, #113 ) ;
#75 = DIRECTION ( 'NONE',  ( 1.000000000000000000, 0.0000000000000000000, 0.0000000000000000000 ) ) ;
#76 = PERSON_AND_ORGANIZATION_ROLE ( 'creator' ) ;
#77 = LINE ( 'NONE', #85, #59 ) ;
#78 = CALENDAR_DATE ( 2017, 12, 4 ) ;
#79 = CC_DESIGN_APPROVAL ( #134, ( #124 ) ) ;
#80 = DIRECTION ( 'NONE',  ( 0.0000000000000000000, 0.0000000000000000000, 1.000000000000000000 ) ) ;
#81 = LOCAL_TIME ( 13, 33, 14.00000000000000000, #44 ) ;
#82 =( GEOMETRIC_REPRESENTATION_CONTEXT ( 3 ) GLOBAL_UNCERTAINTY_ASSIGNED_CONTEXT ( ( #125 ) ) GLOBAL_UNIT_ASSIGNED_CONTEXT ( ( #148, #1, #94 ) ) REPRESENTATION_CONTEXT ( 'NONE', 'WORKASPACE' ) );
#83 = CARTESIAN_POINT ( 'NONE',  ( -6.375000000000000000, 0.0000000000000000000, 0.5000000000000000000 ) ) ;
#84 = ADVANCED_FACE ( 'NONE', ( #160 ), #163, .T. ) ;
#85 = CARTESIAN_POINT ( 'NONE',  ( -6.375000000000000000, 0.0000000000000000000, 0.5000000000000000000 ) ) ;
#86 = PERSON_AND_ORGANIZATION ( #137, #113 ) ;
#87 = PERSON_AND_ORGANIZATION_ROLE ( 'creator' ) ;
#88 = ORIENTED_EDGE ( 'NONE', *, *, #58, .T. ) ;
#89 = DIRECTION ( 'NONE',  ( 0.0000000000000000000, 0.0000000000000000000, 1.000000000000000000 ) ) ;
#90 = DIRECTION ( 'NONE',  ( -0.0000000000000000000, -0.0000000000000000000, -1.000000000000000000 ) ) ;
#91 = CARTESIAN_POINT ( 'NONE',  ( 0.0000000000000000000, 0.0000000000000000000, -0.5000000000000000000 ) ) ;
#92 = CC_DESIGN_DATE_AND_TIME_ASSIGNMENT ( #107, #14, ( #124 ) ) ;
#93 = ADVANCED_FACE ( 'NONE', ( #126 ), #172, .T. ) ;
#94 =( NAMED_UNIT ( * ) SI_UNIT ( $, .STERADIAN. ) SOLID_ANGLE_UNIT ( ) );
#95 = PRODUCT_RELATED_PRODUCT_CATEGORY ( 'detail', '', ( #35 ) ) ;
#96 = EDGE_LOOP ( 'NONE', ( #88, #152 ) ) ;
#97 = CLOSED_SHELL ( 'NONE', ( #84, #69, #93, #149 ) ) ;
#98 = ORIENTED_EDGE ( 'NONE', *, *, #165, .F. ) ;
#99 = APPROVAL_DATE_TIME ( #67, #24 ) ;
#100 = DATE_AND_TIME ( #140, #49 ) ;
#101 = LOCAL_TIME ( 13, 33, 14.00000000000000000, #118 ) ;
#102 = APPROVAL_STATUS ( 'not_yet_approved' ) ;
#103 = CALENDAR_DATE ( 2017, 12, 4 ) ;
#104 = DIRECTION ( 'NONE',  ( 1.000000000000000000, 0.0000000000000000000, -0.0000000000000000000 ) ) ;
#105 = DIRECTION ( 'NONE',  ( -0.0000000000000000000, -0.0000000000000000000, -1.000000000000000000 ) ) ;
#106 = DIRECTION ( 'NONE',  ( -0.0000000000000000000, -0.0000000000000000000, -1.000000000000000000 ) ) ;
#107 = DATE_AND_TIME ( #78, #15 ) ;
#108 = CARTESIAN_POINT ( 'NONE',  ( 0.0000000000000000000, 0.0000000000000000000, 0.5000000000000000000 ) ) ;
#109 = APPROVAL_ROLE ( '' ) ;
#110 = EDGE_CURVE ( 'NONE', #31, #26, #33, .T. ) ;
#111 = DIRECTION ( 'NONE',  ( -1.000000000000000000, 0.0000000000000000000, 0.0000000000000000000 ) ) ;
#112 = DIRECTION ( 'NONE',  ( -1.000000000000000000, 0.0000000000000000000, 0.0000000000000000000 ) ) ;
#113 = ORGANIZATION ( 'UNSPECIFIED', 'UNSPECIFIED', '' ) ;
#114 = DIRECTION ( 'NONE',  ( -0.0000000000000000000, -0.0000000000000000000, -1.000000000000000000 ) ) ;
#115 = ORIENTED_EDGE ( 'NONE', *, *, #110, .F. ) ;
#116 = PERSON_AND_ORGANIZATION ( #137, #113 ) ;
#117 = DIRECTION ( 'NONE',  ( 0.0000000000000000000, 0.0000000000000000000, 1.000000000000000000 ) ) ;
#118 = COORDINATED_UNIVERSAL_TIME_OFFSET ( 5, 0, .BEHIND. ) ;
#119 = MECHANICAL_CONTEXT ( 'NONE', #147, 'mechanical' ) ;
#120 = AXIS2_PLACEMENT_3D ( 'NONE', #108, #151, #72 ) ;
#121 = PERSON_AND_ORGANIZATION ( #137, #113 ) ;
#122 = APPROVAL_STATUS ( 'not_yet_approved' ) ;
#123 = SECURITY_CLASSIFICATION_LEVEL ( 'unclassified' ) ;
#124 = PRODUCT_DEFINITION ( 'UNKNOWN', '', #173, #143 ) ;
#125 = UNCERTAINTY_MEASURE_WITH_UNIT (LENGTH_MEASURE( 1.000000000000000100E-005 ), #148, 'distance_accuracy_value', 'NONE');
#126 = FACE_OUTER_BOUND ( 'NONE', #96, .T. ) ;
#127 = AXIS2_PLACEMENT_3D ( 'NONE', #50, #146, #161 ) ;
#128 = CARTESIAN_POINT ( 'NONE',  ( 0.0000000000000000000, 0.0000000000000000000, 0.5000000000000000000 ) ) ;
#129 = CC_DESIGN_PERSON_AND_ORGANIZATION_ASSIGNMENT ( #74, #51, ( #4 ) ) ;
#130 = DATE_AND_TIME ( #70, #81 ) ;
#131 = AXIS2_PLACEMENT_3D ( 'NONE', #27, #9, #104 ) ;
#132 = PERSON_AND_ORGANIZATION ( #137, #113 ) ;
#133 = CARTESIAN_POINT ( 'NONE',  ( 6.375000000000000000, 7.807123344564375600E-016, 0.5000000000000000000 ) ) ;
#134 = APPROVAL ( #102, 'UNSPECIFIED' ) ;
#135 = AXIS2_PLACEMENT_3D ( 'NONE', #54, #105, #112 ) ;
#136 = CARTESIAN_POINT ( 'NONE',  ( -6.375000000000000000, 0.0000000000000000000, -0.5000000000000000000 ) ) ;
#137 = PERSON ( 'UNSPECIFIED', 'UNSPECIFIED', 'UNSPECIFIED', ('UNSPECIFIED'), ('UNSPECIFIED'), ('UNSPECIFIED') ) ;
#138 = DIRECTION ( 'NONE',  ( 0.0000000000000000000, 0.0000000000000000000, 1.000000000000000000 ) ) ;
#139 = ORIENTED_EDGE ( 'NONE', *, *, #110, .T. ) ;
#140 = CALENDAR_DATE ( 2017, 12, 4 ) ;
#141 = AXIS2_PLACEMENT_3D ( 'NONE', #18, #117, #62 ) ;
#142 = PERSON_AND_ORGANIZATION ( #137, #113 ) ;
#143 = DESIGN_CONTEXT ( 'detailed design', #38, 'design' ) ;
#144 = DIRECTION ( 'NONE',  ( 1.000000000000000000, 0.0000000000000000000, 0.0000000000000000000 ) ) ;
#145 = DATE_TIME_ROLE ( 'classification_date' ) ;
#146 = DIRECTION ( 'NONE',  ( 0.0000000000000000000, 0.0000000000000000000, 1.000000000000000000 ) ) ;
#147 = APPLICATION_CONTEXT ( 'configuration controlled 3d designs of mechanical parts and assemblies' ) ;
#148 =( LENGTH_UNIT ( ) NAMED_UNIT ( * ) SI_UNIT ( .MILLI., .METRE. ) );
#149 = ADVANCED_FACE ( 'NONE', ( #5 ), #158, .F. ) ;
#150 = MANIFOLD_SOLID_BREP ( 'Boss-Extrude1', #97 ) ;
#151 = DIRECTION ( 'NONE',  ( 0.0000000000000000000, 0.0000000000000000000, 1.000000000000000000 ) ) ;
#152 = ORIENTED_EDGE ( 'NONE', *, *, #164, .T. ) ;
#153 = AXIS2_PLACEMENT_3D ( 'NONE', #3, #89, #75 ) ;
#154 = APPROVAL_DATE_TIME ( #100, #28 ) ;
#155 = CARTESIAN_POINT ( 'NONE',  ( 6.375000000000000000, 7.807123344564375600E-016, -0.5000000000000000000 ) ) ;
#156 = APPLICATION_PROTOCOL_DEFINITION ( 'international standard', 'config_control_design', 1994, #38 ) ;
#157 = CC_DESIGN_DATE_AND_TIME_ASSIGNMENT ( #47, #145, ( #4 ) ) ;
#158 = PLANE ( 'NONE',  #174 ) ;
#159 = EDGE_CURVE ( 'NONE', #19, #31, #77, .T. ) ;
#160 = FACE_OUTER_BOUND ( 'NONE', #73, .T. ) ;
#161 = DIRECTION ( 'NONE',  ( 1.000000000000000000, 0.0000000000000000000, 0.0000000000000000000 ) ) ;
#163 = CYLINDRICAL_SURFACE ( 'NONE', #135, 6.375000000000000000 ) ;
#162 = COORDINATED_UNIVERSAL_TIME_OFFSET ( 5, 0, .BEHIND. ) ;
#164 = EDGE_CURVE ( 'NONE', #170, #19, #166, .T. ) ;
#165 = EDGE_CURVE ( 'NONE', #170, #26, #168, .T. ) ;
#166 = CIRCLE ( 'NONE', #120, 6.375000000000000000 ) ;
#167 = PERSON_AND_ORGANIZATION ( #137, #113 ) ;
#168 = LINE ( 'NONE', #133, #36 ) ;
#169 = FACE_OUTER_BOUND ( 'NONE', #60, .T. ) ;
#170 = VERTEX_POINT ( 'NONE', #16 ) ;
#171 = APPROVAL_DATE_TIME ( #130, #134 ) ;
#172 = PLANE ( 'NONE',  #131 ) ;
#173 = PRODUCT_DEFINITION_FORMATION_WITH_SPECIFIED_SOURCE ( 'ANY', '', #35, .NOT_KNOWN. ) ;
#174 = AXIS2_PLACEMENT_3D ( 'NONE', #91, #80, #20 ) ;
#175 = LOCAL_TIME ( 13, 33, 14.00000000000000000, #162 ) ;
ENDSEC;
END-ISO-10303-21;
