ISO-10303-21;
HEADER;
FILE_DESCRIPTION (( 'STEP AP214' ),
    '1' );
FILE_NAME ('23308.step',
    '2022-09-30T13:19:11',
    ( '' ),
    ( '' ),
    'SwSTEP 2.0',
    'SolidWorks 2021',
    '' );
FILE_SCHEMA (( 'AUTOMOTIVE_DESIGN' ));
ENDSEC;

DATA;
#1 = CARTESIAN_POINT ( 'NONE',  ( -7.500000000000000000, 9.184850993605147944E-16, -1.000000000000000000 ) ) ;
#2 = DIRECTION ( 'NONE',  ( 1.000000000000000000, 0.000000000000000000, 0.000000000000000000 ) ) ;
#3 = EDGE_CURVE ( 'NONE', #11, #90, #87, .T. ) ;
#4 = DIRECTION ( 'NONE',  ( 0.000000000000000000, 0.000000000000000000, 1.000000000000000000 ) ) ;
#5 = PRODUCT_CONTEXT ( 'NONE', #86, 'mechanical' ) ;
#6 = EDGE_CURVE ( 'NONE', #11, #52, #105, .T. ) ;
#7 = FACE_OUTER_BOUND ( 'NONE', #53, .T. ) ;
#8 = CARTESIAN_POINT ( 'NONE',  ( -7.500000000000000000, 9.184850993605147944E-16, -1.000000000000000000 ) ) ;
#9 = DIRECTION ( 'NONE',  ( 1.000000000000000000, 0.000000000000000000, -0.000000000000000000 ) ) ;
#10 = FACE_OUTER_BOUND ( 'NONE', #14, .T. ) ;
#11 = VERTEX_POINT ( 'NONE', #1 ) ;
#12 = PRODUCT_DEFINITION ( 'UNKNOWN', '', #36, #48 ) ;
#13 = ORIENTED_EDGE ( 'NONE', *, *, #98, .F. ) ;
#14 = EDGE_LOOP ( 'NONE', ( #17, #61 ) ) ;
#15 = APPLICATION_CONTEXT ( 'automotive_design' ) ;
#16 = CIRCLE ( 'NONE', #91, 7.500000000000000000 ) ;
#17 = ORIENTED_EDGE ( 'NONE', *, *, #63, .F. ) ;
#18 = COLOUR_RGB ( '',0.7921568627450980005, 0.8196078431372548767, 0.9333333333333333481 ) ;
#19 = DIRECTION ( 'NONE',  ( 0.000000000000000000, 0.000000000000000000, 1.000000000000000000 ) ) ;
#20 = ADVANCED_FACE ( 'NONE', ( #7 ), #71, .T. ) ;
#21 = DIRECTION ( 'NONE',  ( 1.000000000000000000, 0.000000000000000000, 0.000000000000000000 ) ) ;
#22 =( NAMED_UNIT ( * ) SI_UNIT ( $, .STERADIAN. ) SOLID_ANGLE_UNIT ( ) );
#23 = DIRECTION ( 'NONE',  ( 0.000000000000000000, 0.000000000000000000, 1.000000000000000000 ) ) ;
#24 = VECTOR ( 'NONE', #58, 1000.000000000000000 ) ;
#25 = PRESENTATION_STYLE_ASSIGNMENT (( #119 ) ) ;
#26 =( LENGTH_UNIT ( ) NAMED_UNIT ( * ) SI_UNIT ( .MILLI., .METRE. ) );
#27 = FILL_AREA_STYLE ('',( #37 ) ) ;
#28 = DIRECTION ( 'NONE',  ( 0.000000000000000000, 0.000000000000000000, 1.000000000000000000 ) ) ;
#29 = UNCERTAINTY_MEASURE_WITH_UNIT (LENGTH_MEASURE( 1.000000000000000082E-05 ), #32, 'distance_accuracy_value', 'NONE');
#30 = DIRECTION ( 'NONE',  ( 1.000000000000000000, 0.000000000000000000, 0.000000000000000000 ) ) ;
#31 = CARTESIAN_POINT ( 'NONE',  ( -7.500000000000000000, 9.184850993605147944E-16, 0.000000000000000000 ) ) ;
#32 =( LENGTH_UNIT ( ) NAMED_UNIT ( * ) SI_UNIT ( .MILLI., .METRE. ) );
#33 = STYLED_ITEM ( 'NONE', ( #81 ), #109 ) ;
#34 =( NAMED_UNIT ( * ) PLANE_ANGLE_UNIT ( ) SI_UNIT ( $, .RADIAN. ) );
#35 = ORIENTED_EDGE ( 'NONE', *, *, #63, .T. ) ;
#36 = PRODUCT_DEFINITION_FORMATION_WITH_SPECIFIED_SOURCE ( 'ANY', '', #66, .NOT_KNOWN. ) ;
#37 = FILL_AREA_STYLE_COLOUR ( '', #18 ) ;
#38 = ORIENTED_EDGE ( 'NONE', *, *, #118, .F. ) ;
#39 = LINE ( 'NONE', #78, #89 ) ;
#40 = ADVANCED_FACE ( 'NONE', ( #10 ), #133, .F. ) ;
#41 = AXIS2_PLACEMENT_3D ( 'NONE', #95, #130, #2 ) ;
#42 = FACE_OUTER_BOUND ( 'NONE', #120, .T. ) ;
#43 = CARTESIAN_POINT ( 'NONE',  ( 7.500000000000000000, 0.000000000000000000, -1.000000000000000000 ) ) ;
#44 = DIRECTION ( 'NONE',  ( 0.000000000000000000, 0.000000000000000000, 1.000000000000000000 ) ) ;
#45 = PRODUCT_DEFINITION_SHAPE ( 'NONE', 'NONE',  #12 ) ;
#46 = PRESENTATION_LAYER_ASSIGNMENT (  '', '', ( #114 ) ) ;
#47 = CARTESIAN_POINT ( 'NONE',  ( 0.000000000000000000, 0.000000000000000000, -1.000000000000000000 ) ) ;
#48 = PRODUCT_DEFINITION_CONTEXT ( 'detailed design', #15, 'design' ) ;
#49 =( NAMED_UNIT ( * ) PLANE_ANGLE_UNIT ( ) SI_UNIT ( $, .RADIAN. ) );
#50 = DIRECTION ( 'NONE',  ( 0.000000000000000000, 0.000000000000000000, 1.000000000000000000 ) ) ;
#51 = AXIS2_PLACEMENT_3D ( 'NONE', #107, #4, #21 ) ;
#52 = VERTEX_POINT ( 'NONE', #31 ) ;
#53 = EDGE_LOOP ( 'NONE', ( #110, #77, #80, #13 ) ) ;
#54 = MECHANICAL_DESIGN_GEOMETRIC_PRESENTATION_REPRESENTATION (  '', ( #33 ), #69 ) ;
#55 = PLANE ( 'NONE',  #139 ) ;
#56 = ADVANCED_BREP_SHAPE_REPRESENTATION ( '23308', ( #109, #84 ), #128 ) ;
#57 = FACE_OUTER_BOUND ( 'NONE', #136, .T. ) ;
#58 = DIRECTION ( 'NONE',  ( 0.000000000000000000, 0.000000000000000000, 1.000000000000000000 ) ) ;
#59 = MECHANICAL_DESIGN_GEOMETRIC_PRESENTATION_REPRESENTATION (  '', ( #114 ), #96 ) ;
#60 =( NAMED_UNIT ( * ) PLANE_ANGLE_UNIT ( ) SI_UNIT ( $, .RADIAN. ) );
#61 = ORIENTED_EDGE ( 'NONE', *, *, #3, .F. ) ;
#62 = AXIS2_PLACEMENT_3D ( 'NONE', #115, #67, #140 ) ;
#63 = EDGE_CURVE ( 'NONE', #90, #11, #101, .T. ) ;
#64 = CARTESIAN_POINT ( 'NONE',  ( 0.000000000000000000, 0.000000000000000000, 0.000000000000000000 ) ) ;
#65 = DIRECTION ( 'NONE',  ( 0.000000000000000000, 0.000000000000000000, 1.000000000000000000 ) ) ;
#66 = PRODUCT ( '23308', '23308', '', ( #5 ) ) ;
#67 = DIRECTION ( 'NONE',  ( 0.000000000000000000, 0.000000000000000000, 1.000000000000000000 ) ) ;
#68 = CARTESIAN_POINT ( 'NONE',  ( 7.500000000000000000, 0.000000000000000000, 0.000000000000000000 ) ) ;
#69 =( GEOMETRIC_REPRESENTATION_CONTEXT ( 3 ) GLOBAL_UNCERTAINTY_ASSIGNED_CONTEXT ( ( #29 ) ) GLOBAL_UNIT_ASSIGNED_CONTEXT ( ( #32, #60, #22 ) ) REPRESENTATION_CONTEXT ( 'NONE', 'WORKASPACE' ) );
#70 = DIRECTION ( 'NONE',  ( 1.000000000000000000, 0.000000000000000000, 0.000000000000000000 ) ) ;
#71 = CYLINDRICAL_SURFACE ( 'NONE', #51, 7.500000000000000000 ) ;
#72 = AXIS2_PLACEMENT_3D ( 'NONE', #85, #28, #102 ) ;
#73 = SHAPE_DEFINITION_REPRESENTATION ( #45, #56 ) ;
#74 = SURFACE_SIDE_STYLE ('',( #100 ) ) ;
#75 = ORIENTED_EDGE ( 'NONE', *, *, #98, .T. ) ;
#76 = DIRECTION ( 'NONE',  ( 1.000000000000000000, 0.000000000000000000, 0.000000000000000000 ) ) ;
#77 = ORIENTED_EDGE ( 'NONE', *, *, #3, .T. ) ;
#78 = CARTESIAN_POINT ( 'NONE',  ( 7.500000000000000000, 0.000000000000000000, -1.000000000000000000 ) ) ;
#79 = AXIS2_PLACEMENT_3D ( 'NONE', #47, #65, #9 ) ;
#80 = ORIENTED_EDGE ( 'NONE', *, *, #132, .T. ) ;
#81 = PRESENTATION_STYLE_ASSIGNMENT (( #108 ) ) ;
#82 = ADVANCED_FACE ( 'NONE', ( #57 ), #55, .T. ) ;
#83 = DIRECTION ( 'NONE',  ( 1.000000000000000000, 0.000000000000000000, -0.000000000000000000 ) ) ;
#84 = AXIS2_PLACEMENT_3D ( 'NONE', #97, #50, #76 ) ;
#85 = CARTESIAN_POINT ( 'NONE',  ( 0.000000000000000000, 0.000000000000000000, -1.000000000000000000 ) ) ;
#86 = APPLICATION_CONTEXT ( 'automotive_design' ) ;
#87 = CIRCLE ( 'NONE', #62, 7.500000000000000000 ) ;
#88 = DIRECTION ( 'NONE',  ( 0.000000000000000000, 0.000000000000000000, 1.000000000000000000 ) ) ;
#89 = VECTOR ( 'NONE', #88, 1000.000000000000000 ) ;
#90 = VERTEX_POINT ( 'NONE', #43 ) ;
#91 = AXIS2_PLACEMENT_3D ( 'NONE', #64, #19, #70 ) ;
#92 = FILL_AREA_STYLE_COLOUR ( '', #103 ) ;
#93 = ORIENTED_EDGE ( 'NONE', *, *, #6, .T. ) ;
#94 = ADVANCED_FACE ( 'NONE', ( #42 ), #125, .T. ) ;
#95 = CARTESIAN_POINT ( 'NONE',  ( 0.000000000000000000, 0.000000000000000000, -1.000000000000000000 ) ) ;
#96 =( GEOMETRIC_REPRESENTATION_CONTEXT ( 3 ) GLOBAL_UNCERTAINTY_ASSIGNED_CONTEXT ( ( #127 ) ) GLOBAL_UNIT_ASSIGNED_CONTEXT ( ( #134, #34, #111 ) ) REPRESENTATION_CONTEXT ( 'NONE', 'WORKASPACE' ) );
#97 = CARTESIAN_POINT ( 'NONE',  ( 0.000000000000000000, 0.000000000000000000, 0.000000000000000000 ) ) ;
#98 = EDGE_CURVE ( 'NONE', #52, #129, #16, .T. ) ;
#99 = ORIENTED_EDGE ( 'NONE', *, *, #132, .F. ) ;
#100 = SURFACE_STYLE_FILL_AREA ( #27 ) ;
#101 = CIRCLE ( 'NONE', #41, 7.500000000000000000 ) ;
#102 = DIRECTION ( 'NONE',  ( 1.000000000000000000, 0.000000000000000000, 0.000000000000000000 ) ) ;
#103 = COLOUR_RGB ( '',0.7921568627450980005, 0.8196078431372548767, 0.9333333333333333481 ) ;
#104 = SURFACE_STYLE_FILL_AREA ( #138 ) ;
#105 = LINE ( 'NONE', #8, #24 ) ;
#106 = UNCERTAINTY_MEASURE_WITH_UNIT (LENGTH_MEASURE( 1.000000000000000082E-05 ), #26, 'distance_accuracy_value', 'NONE');
#107 = CARTESIAN_POINT ( 'NONE',  ( 0.000000000000000000, 0.000000000000000000, -1.000000000000000000 ) ) ;
#108 = SURFACE_STYLE_USAGE ( .BOTH. , #113 ) ;
#109 = MANIFOLD_SOLID_BREP ( 'Boss-Extrude1', #124 ) ;
#110 = ORIENTED_EDGE ( 'NONE', *, *, #6, .F. ) ;
#111 =( NAMED_UNIT ( * ) SI_UNIT ( $, .STERADIAN. ) SOLID_ANGLE_UNIT ( ) );
#112 = PRESENTATION_LAYER_ASSIGNMENT (  '', '', ( #33 ) ) ;
#113 = SURFACE_SIDE_STYLE ('',( #104 ) ) ;
#114 = STYLED_ITEM ( 'NONE', ( #25 ), #56 ) ;
#115 = CARTESIAN_POINT ( 'NONE',  ( 0.000000000000000000, 0.000000000000000000, -1.000000000000000000 ) ) ;
#116 = CARTESIAN_POINT ( 'NONE',  ( 0.000000000000000000, 0.000000000000000000, 0.000000000000000000 ) ) ;
#117 = CARTESIAN_POINT ( 'NONE',  ( 0.000000000000000000, 0.000000000000000000, 0.000000000000000000 ) ) ;
#118 = EDGE_CURVE ( 'NONE', #129, #52, #131, .T. ) ;
#119 = SURFACE_STYLE_USAGE ( .BOTH. , #74 ) ;
#120 = EDGE_LOOP ( 'NONE', ( #35, #93, #38, #99 ) ) ;
#121 = APPLICATION_PROTOCOL_DEFINITION ( 'draft international standard', 'automotive_design', 1998, #15 ) ;
#122 = AXIS2_PLACEMENT_3D ( 'NONE', #117, #23, #30 ) ;
#123 = APPLICATION_PROTOCOL_DEFINITION ( 'draft international standard', 'automotive_design', 1998, #86 ) ;
#124 = CLOSED_SHELL ( 'NONE', ( #94, #20, #40, #82 ) ) ;
#125 = CYLINDRICAL_SURFACE ( 'NONE', #72, 7.500000000000000000 ) ;
#126 = PRODUCT_RELATED_PRODUCT_CATEGORY ( 'part', '', ( #66 ) ) ;
#127 = UNCERTAINTY_MEASURE_WITH_UNIT (LENGTH_MEASURE( 1.000000000000000082E-05 ), #134, 'distance_accuracy_value', 'NONE');
#128 =( GEOMETRIC_REPRESENTATION_CONTEXT ( 3 ) GLOBAL_UNCERTAINTY_ASSIGNED_CONTEXT ( ( #106 ) ) GLOBAL_UNIT_ASSIGNED_CONTEXT ( ( #26, #49, #135 ) ) REPRESENTATION_CONTEXT ( 'NONE', 'WORKASPACE' ) );
#129 = VERTEX_POINT ( 'NONE', #68 ) ;
#130 = DIRECTION ( 'NONE',  ( 0.000000000000000000, 0.000000000000000000, 1.000000000000000000 ) ) ;
#131 = CIRCLE ( 'NONE', #122, 7.500000000000000000 ) ;
#132 = EDGE_CURVE ( 'NONE', #90, #129, #39, .T. ) ;
#133 = PLANE ( 'NONE',  #79 ) ;
#134 =( LENGTH_UNIT ( ) NAMED_UNIT ( * ) SI_UNIT ( .MILLI., .METRE. ) );
#135 =( NAMED_UNIT ( * ) SI_UNIT ( $, .STERADIAN. ) SOLID_ANGLE_UNIT ( ) );
#136 = EDGE_LOOP ( 'NONE', ( #137, #75 ) ) ;
#137 = ORIENTED_EDGE ( 'NONE', *, *, #118, .T. ) ;
#138 = FILL_AREA_STYLE ('',( #92 ) ) ;
#139 = AXIS2_PLACEMENT_3D ( 'NONE', #116, #44, #83 ) ;
#140 = DIRECTION ( 'NONE',  ( 1.000000000000000000, 0.000000000000000000, 0.000000000000000000 ) ) ;
ENDSEC;
END-ISO-10303-21;
