ISO-10303-21;
HEADER;
FILE_DESCRIPTION (( 'STEP AP203' ),
    '1' );
FILE_NAME ('Web Model 37117MX_37120.step',
    '2017-10-30T12:46:10',
    ( '' ),
    ( '' ),
    'SwSTEP 2.0',
    'SolidWorks 2016',
    '' );
FILE_SCHEMA (( 'CONFIG_CONTROL_DESIGN' ));
ENDSEC;

DATA;
#1 = VECTOR ( 'NONE', #69, 1000.000000000000000 ) ;
#2 = DIRECTION ( 'NONE',  ( 0.0000000000000000000, 1.000000000000000000, 0.0000000000000000000 ) ) ;
#3 = PLANE ( 'NONE',  #160 ) ;
#4 = APPLICATION_CONTEXT ( 'configuration controlled 3d designs of mechanical parts and assemblies' ) ;
#5 = CARTESIAN_POINT ( 'NONE',  ( 0.0000000000000000000, 0.0000000000000000000, 3.000000000000000000 ) ) ;
#6 = ORIENTED_EDGE ( 'NONE', *, *, #86, .F. ) ;
#7 = PERSON_AND_ORGANIZATION_ROLE ( 'classification_officer' ) ;
#8 = DIRECTION ( 'NONE',  ( -0.0000000000000000000, -1.000000000000000000, -0.0000000000000000000 ) ) ;
#9 = APPLICATION_CONTEXT ( 'configuration controlled 3d designs of mechanical parts and assemblies' ) ;
#10 = ORIENTED_EDGE ( 'NONE', *, *, #63, .T. ) ;
#11 = VERTEX_POINT ( 'NONE', #16 ) ;
#12 = CC_DESIGN_APPROVAL ( #83, ( #46 ) ) ;
#13 = VECTOR ( 'NONE', #148, 1000.000000000000000 ) ;
#14 = DIRECTION ( 'NONE',  ( -0.0000000000000000000, -0.0000000000000000000, -1.000000000000000000 ) ) ;
#15 = LINE ( 'NONE', #53, #237 ) ;
#16 = CARTESIAN_POINT ( 'NONE',  ( -6.250000000000000000, 6.250000000000000000, 3.000000000000000000 ) ) ;
#17 = CC_DESIGN_APPROVAL ( #92, ( #68 ) ) ;
#18 = APPROVAL_STATUS ( 'not_yet_approved' ) ;
#19 = LINE ( 'NONE', #90, #144 ) ;
#20 = DIRECTION ( 'NONE',  ( 0.0000000000000000000, -0.0000000000000000000, 1.000000000000000000 ) ) ;
#21 = EDGE_CURVE ( 'NONE', #65, #145, #66, .T. ) ;
#22 = EDGE_CURVE ( 'NONE', #145, #117, #173, .T. ) ;
#23 = PERSON ( 'UNSPECIFIED', 'UNSPECIFIED', 'UNSPECIFIED', ('UNSPECIFIED'), ('UNSPECIFIED'), ('UNSPECIFIED') ) ;
#24 = ORIENTED_EDGE ( 'NONE', *, *, #143, .F. ) ;
#25 = COORDINATED_UNIVERSAL_TIME_OFFSET ( 5, 0, .BEHIND. ) ;
#26 = LINE ( 'NONE', #151, #125 ) ;
#27 = ORIENTED_EDGE ( 'NONE', *, *, #177, .F. ) ;
#28 = EDGE_LOOP ( 'NONE', ( #194, #157, #132, #155 ) ) ;
#29 = DATE_AND_TIME ( #147, #182 ) ;
#30 = ORIENTED_EDGE ( 'NONE', *, *, #126, .F. ) ;
#31 = ORIENTED_EDGE ( 'NONE', *, *, #102, .F. ) ;
#32 = PERSON_AND_ORGANIZATION ( #23, #179 ) ;
#33 = FACE_OUTER_BOUND ( 'NONE', #28, .T. ) ;
#34 = ADVANCED_FACE ( 'NONE', ( #198 ), #3, .F. ) ;
#35 = CALENDAR_DATE ( 2017, 30, 10 ) ;
#36 = DIRECTION ( 'NONE',  ( -1.387778780781445700E-016, 1.000000000000000000, 0.0000000000000000000 ) ) ;
#37 = PERSON_AND_ORGANIZATION_ROLE ( 'creator' ) ;
#38 = EDGE_LOOP ( 'NONE', ( #152, #108, #84, #43 ) ) ;
#39 = APPROVAL_ROLE ( '' ) ;
#40 = VECTOR ( 'NONE', #75, 1000.000000000000000 ) ;
#41 = CARTESIAN_POINT ( 'NONE',  ( 0.0000000000000000000, 0.0000000000000000000, -3.000000000000000000 ) ) ;
#42 = ORIENTED_EDGE ( 'NONE', *, *, #71, .T. ) ;
#43 = ORIENTED_EDGE ( 'NONE', *, *, #86, .T. ) ;
#44 = APPROVAL_PERSON_ORGANIZATION ( #78, #100, #156 ) ;
#45 = PERSON_AND_ORGANIZATION ( #23, #179 ) ;
#46 = PRODUCT_DEFINITION ( 'UNKNOWN', '', #131, #60 ) ;
#47 = CARTESIAN_POINT ( 'NONE',  ( 6.249999999999998200, -6.249999999999998200, 3.000000000000000000 ) ) ;
#48 = DATE_AND_TIME ( #162, #212 ) ;
#49 = FACE_OUTER_BOUND ( 'NONE', #81, .T. ) ;
#50 = PLANE ( 'NONE',  #54 ) ;
#51 = CARTESIAN_POINT ( 'NONE',  ( 6.249999999999998200, 6.250000000000001800, -3.000000000000000000 ) ) ;
#52 = EDGE_LOOP ( 'NONE', ( #59, #175, #106, #30 ) ) ;
#53 = CARTESIAN_POINT ( 'NONE',  ( -6.250000000000000000, 6.250000000000000000, 3.000000000000000000 ) ) ;
#54 = AXIS2_PLACEMENT_3D ( 'NONE', #47, #201, #200 ) ;
#55 = APPROVAL_STATUS ( 'not_yet_approved' ) ;
#56 = FACE_OUTER_BOUND ( 'NONE', #38, .T. ) ;
#57 = DIRECTION ( 'NONE',  ( 1.000000000000000000, 1.387778780781445900E-016, -0.0000000000000000000 ) ) ;
#58 = DIRECTION ( 'NONE',  ( 1.387778780781445700E-016, -1.000000000000000000, 0.0000000000000000000 ) ) ;
#59 = ORIENTED_EDGE ( 'NONE', *, *, #82, .F. ) ;
#60 = DESIGN_CONTEXT ( 'detailed design', #4, 'design' ) ;
#61 = SHAPE_DEFINITION_REPRESENTATION ( #214, #72 ) ;
#62 = EDGE_CURVE ( 'NONE', #91, #101, #19, .T. ) ;
#63 = EDGE_CURVE ( 'NONE', #113, #222, #98, .T. ) ;
#64 = VECTOR ( 'NONE', #185, 1000.000000000000000 ) ;
#65 = VERTEX_POINT ( 'NONE', #218 ) ;
#66 = LINE ( 'NONE', #224, #219 ) ;
#67 = PERSON_AND_ORGANIZATION ( #23, #179 ) ;
#68 = SECURITY_CLASSIFICATION ( '', '', #74 ) ;
#69 = DIRECTION ( 'NONE',  ( -0.0000000000000000000, -0.0000000000000000000, -1.000000000000000000 ) ) ;
#70 = CARTESIAN_POINT ( 'NONE',  ( 6.249999999999998200, -6.249999999999998200, 3.000000000000000000 ) ) ;
#71 = EDGE_CURVE ( 'NONE', #101, #145, #129, .T. ) ;
#72 = ADVANCED_BREP_SHAPE_REPRESENTATION ( 'Web Model 37117MX_37120', ( #120, #235 ), #213 ) ;
#73 = CARTESIAN_POINT ( 'NONE',  ( -6.250000000000000000, -6.250000000000000000, -3.000000000000000000 ) ) ;
#74 = SECURITY_CLASSIFICATION_LEVEL ( 'unclassified' ) ;
#75 = DIRECTION ( 'NONE',  ( -1.000000000000000000, -1.387778780781445900E-016, 0.0000000000000000000 ) ) ;
#76 = PRODUCT_RELATED_PRODUCT_CATEGORY ( 'detail', '', ( #232 ) ) ;
#77 = DATE_TIME_ROLE ( 'creation_date' ) ;
#78 = PERSON_AND_ORGANIZATION ( #23, #179 ) ;
#79 =( LENGTH_UNIT ( ) NAMED_UNIT ( * ) SI_UNIT ( .MILLI., .METRE. ) );
#80 = CC_DESIGN_PERSON_AND_ORGANIZATION_ASSIGNMENT ( #67, #7, ( #68 ) ) ;
#81 = EDGE_LOOP ( 'NONE', ( #204, #123, #27, #42 ) ) ;
#82 = EDGE_CURVE ( 'NONE', #117, #222, #178, .T. ) ;
#83 = APPROVAL ( #55, 'UNSPECIFIED' ) ;
#84 = ORIENTED_EDGE ( 'NONE', *, *, #62, .F. ) ;
#85 = COORDINATED_UNIVERSAL_TIME_OFFSET ( 5, 0, .BEHIND. ) ;
#86 = EDGE_CURVE ( 'NONE', #91, #65, #26, .T. ) ;
#87 = PERSON_AND_ORGANIZATION ( #23, #179 ) ;
#88 = VECTOR ( 'NONE', #57, 1000.000000000000000 ) ;
#89 = AXIS2_PLACEMENT_3D ( 'NONE', #172, #58, #99 ) ;
#90 = CARTESIAN_POINT ( 'NONE',  ( 6.249999999999998200, -6.249999999999998200, 3.000000000000000000 ) ) ;
#91 = VERTEX_POINT ( 'NONE', #70 ) ;
#92 = APPROVAL ( #206, 'UNSPECIFIED' ) ;
#93 = CARTESIAN_POINT ( 'NONE',  ( -6.250000000000000000, 6.250000000000000000, -3.000000000000000000 ) ) ;
#94 = ADVANCED_FACE ( 'NONE', ( #56 ), #50, .F. ) ;
#95 = DIRECTION ( 'NONE',  ( 0.0000000000000000000, 0.0000000000000000000, 1.000000000000000000 ) ) ;
#96 = DIRECTION ( 'NONE',  ( 0.0000000000000000000, -0.0000000000000000000, 1.000000000000000000 ) ) ;
#97 = APPROVAL_DATE_TIME ( #48, #92 ) ;
#98 = LINE ( 'NONE', #130, #210 ) ;
#99 = DIRECTION ( 'NONE',  ( 1.000000000000000000, 1.387778780781445700E-016, 0.0000000000000000000 ) ) ;
#100 = APPROVAL ( #18, 'UNSPECIFIED' ) ;
#101 = VERTEX_POINT ( 'NONE', #110 ) ;
#102 = EDGE_CURVE ( 'NONE', #113, #91, #139, .T. ) ;
#103 = PERSON_AND_ORGANIZATION ( #23, #179 ) ;
#104 = FACE_OUTER_BOUND ( 'NONE', #165, .T. ) ;
#105 = CC_DESIGN_DATE_AND_TIME_ASSIGNMENT ( #138, #77, ( #46 ) ) ;
#106 = ORIENTED_EDGE ( 'NONE', *, *, #21, .F. ) ;
#107 = PERSON_AND_ORGANIZATION ( #23, #179 ) ;
#108 = ORIENTED_EDGE ( 'NONE', *, *, #71, .F. ) ;
#109 = CARTESIAN_POINT ( 'NONE',  ( -6.250000000000000000, -6.250000000000000000, 3.000000000000000000 ) ) ;
#110 = CARTESIAN_POINT ( 'NONE',  ( 6.249999999999998200, 6.250000000000001800, 3.000000000000000000 ) ) ;
#111 = VECTOR ( 'NONE', #8, 1000.000000000000000 ) ;
#112 = PERSON_AND_ORGANIZATION_ROLE ( 'design_owner' ) ;
#113 = VERTEX_POINT ( 'NONE', #149 ) ;
#114 = ADVANCED_FACE ( 'NONE', ( #104 ), #203, .F. ) ;
#115 = PLANE ( 'NONE',  #217 ) ;
#116 = APPLICATION_PROTOCOL_DEFINITION ( 'international standard', 'config_control_design', 1994, #4 ) ;
#117 = VERTEX_POINT ( 'NONE', #93 ) ;
#118 = AXIS2_PLACEMENT_3D ( 'NONE', #41, #96, #189 ) ;
#119 = DIRECTION ( 'NONE',  ( 1.000000000000000000, 0.0000000000000000000, 0.0000000000000000000 ) ) ;
#120 = MANIFOLD_SOLID_BREP ( 'Boss-Extrude1', #216 ) ;
#121 = LINE ( 'NONE', #229, #88 ) ;
#122 = LINE ( 'NONE', #174, #111 ) ;
#123 = ORIENTED_EDGE ( 'NONE', *, *, #199, .F. ) ;
#124 = CC_DESIGN_PERSON_AND_ORGANIZATION_ASSIGNMENT ( #45, #112, ( #232 ) ) ;
#125 = VECTOR ( 'NONE', #220, 1000.000000000000000 ) ;
#126 = EDGE_CURVE ( 'NONE', #222, #65, #121, .T. ) ;
#127 = APPROVAL_PERSON_ORGANIZATION ( #103, #92, #39 ) ;
#128 = DIRECTION ( 'NONE',  ( 1.000000000000000000, 0.0000000000000000000, 0.0000000000000000000 ) ) ;
#129 = LINE ( 'NONE', #166, #1 ) ;
#130 = CARTESIAN_POINT ( 'NONE',  ( -6.250000000000000000, -6.250000000000000000, 3.000000000000000000 ) ) ;
#131 = PRODUCT_DEFINITION_FORMATION_WITH_SPECIFIED_SOURCE ( 'ANY', '', #232, .NOT_KNOWN. ) ;
#132 = ORIENTED_EDGE ( 'NONE', *, *, #62, .T. ) ;
#133 = DIRECTION ( 'NONE',  ( 0.0000000000000000000, 1.000000000000000000, 0.0000000000000000000 ) ) ;
#134 = ADVANCED_FACE ( 'NONE', ( #49 ), #193, .F. ) ;
#135 = APPROVAL_ROLE ( '' ) ;
#136 = CC_DESIGN_APPROVAL ( #100, ( #131 ) ) ;
#137 = DATE_TIME_ROLE ( 'classification_date' ) ;
#138 = DATE_AND_TIME ( #35, #234 ) ;
#139 = LINE ( 'NONE', #168, #13 ) ;
#140 = DIRECTION ( 'NONE',  ( 1.000000000000000000, 0.0000000000000000000, -0.0000000000000000000 ) ) ;
#141 = MECHANICAL_CONTEXT ( 'NONE', #9, 'mechanical' ) ;
#142 = DATE_AND_TIME ( #187, #176 ) ;
#143 = EDGE_CURVE ( 'NONE', #11, #113, #122, .T. ) ;
#144 = VECTOR ( 'NONE', #2, 1000.000000000000000 ) ;
#145 = VERTEX_POINT ( 'NONE', #171 ) ;
#146 = CC_DESIGN_DATE_AND_TIME_ASSIGNMENT ( #191, #137, ( #68 ) ) ;
#147 = CALENDAR_DATE ( 2017, 30, 10 ) ;
#148 = DIRECTION ( 'NONE',  ( 1.000000000000000000, 1.387778780781445900E-016, -0.0000000000000000000 ) ) ;
#149 = CARTESIAN_POINT ( 'NONE',  ( -6.250000000000000000, -6.250000000000000000, 3.000000000000000000 ) ) ;
#150 = DIRECTION ( 'NONE',  ( -1.000000000000000000, -1.387778780781445900E-016, 0.0000000000000000000 ) ) ;
#151 = CARTESIAN_POINT ( 'NONE',  ( 6.249999999999998200, -6.249999999999998200, 3.000000000000000000 ) ) ;
#152 = ORIENTED_EDGE ( 'NONE', *, *, #21, .T. ) ;
#153 = PERSON_AND_ORGANIZATION_ROLE ( 'creator' ) ;
#154 = CALENDAR_DATE ( 2017, 30, 10 ) ;
#155 = ORIENTED_EDGE ( 'NONE', *, *, #177, .T. ) ;
#156 = APPROVAL_ROLE ( '' ) ;
#157 = ORIENTED_EDGE ( 'NONE', *, *, #102, .T. ) ;
#158 = PLANE ( 'NONE',  #118 ) ;
#159 = CARTESIAN_POINT ( 'NONE',  ( 6.249999999999998200, 6.250000000000001800, 3.000000000000000000 ) ) ;
#160 = AXIS2_PLACEMENT_3D ( 'NONE', #221, #36, #186 ) ;
#161 = ORIENTED_EDGE ( 'NONE', *, *, #63, .F. ) ;
#162 = CALENDAR_DATE ( 2017, 30, 10 ) ;
#163 = VECTOR ( 'NONE', #150, 1000.000000000000000 ) ;
#164 = CC_DESIGN_PERSON_AND_ORGANIZATION_ASSIGNMENT ( #32, #190, ( #131 ) ) ;
#165 = EDGE_LOOP ( 'NONE', ( #207, #161, #24, #170 ) ) ;
#166 = CARTESIAN_POINT ( 'NONE',  ( 6.249999999999998200, 6.250000000000001800, 3.000000000000000000 ) ) ;
#167 = CARTESIAN_POINT ( 'NONE',  ( -6.250000000000000000, -6.250000000000000000, -3.000000000000000000 ) ) ;
#168 = CARTESIAN_POINT ( 'NONE',  ( 6.249999999999998200, -6.249999999999998200, 3.000000000000000000 ) ) ;
#169 = PERSON_AND_ORGANIZATION ( #23, #179 ) ;
#170 = ORIENTED_EDGE ( 'NONE', *, *, #199, .T. ) ;
#171 = CARTESIAN_POINT ( 'NONE',  ( 6.249999999999998200, 6.250000000000001800, -3.000000000000000000 ) ) ;
#172 = CARTESIAN_POINT ( 'NONE',  ( 6.249999999999998200, 6.250000000000001800, 3.000000000000000000 ) ) ;
#173 = LINE ( 'NONE', #51, #163 ) ;
#174 = CARTESIAN_POINT ( 'NONE',  ( -6.250000000000000000, -6.250000000000000000, 3.000000000000000000 ) ) ;
#175 = ORIENTED_EDGE ( 'NONE', *, *, #22, .F. ) ;
#176 = LOCAL_TIME ( 8, 46, 10.00000000000000000, #196 ) ;
#177 = EDGE_CURVE ( 'NONE', #101, #11, #228, .T. ) ;
#178 = LINE ( 'NONE', #167, #64 ) ;
#179 = ORGANIZATION ( 'UNSPECIFIED', 'UNSPECIFIED', '' ) ;
#180 = ORIENTED_EDGE ( 'NONE', *, *, #126, .T. ) ;
#181 = UNCERTAINTY_MEASURE_WITH_UNIT (LENGTH_MEASURE( 1.000000000000000100E-005 ), #79, 'distance_accuracy_value', 'NONE');
#182 = LOCAL_TIME ( 8, 46, 10.00000000000000000, #85 ) ;
#183 = APPROVAL_DATE_TIME ( #142, #83 ) ;
#184 = FACE_OUTER_BOUND ( 'NONE', #52, .T. ) ;
#185 = DIRECTION ( 'NONE',  ( -0.0000000000000000000, -1.000000000000000000, -0.0000000000000000000 ) ) ;
#186 = DIRECTION ( 'NONE',  ( -1.000000000000000000, -1.387778780781445700E-016, 0.0000000000000000000 ) ) ;
#187 = CALENDAR_DATE ( 2017, 30, 10 ) ;
#188 = CC_DESIGN_SECURITY_CLASSIFICATION ( #68, ( #131 ) ) ;
#189 = DIRECTION ( 'NONE',  ( 1.000000000000000000, 0.0000000000000000000, -0.0000000000000000000 ) ) ;
#190 = PERSON_AND_ORGANIZATION_ROLE ( 'design_supplier' ) ;
#191 = DATE_AND_TIME ( #154, #227 ) ;
#192 =( NAMED_UNIT ( * ) SI_UNIT ( $, .STERADIAN. ) SOLID_ANGLE_UNIT ( ) );
#193 = PLANE ( 'NONE',  #89 ) ;
#194 = ORIENTED_EDGE ( 'NONE', *, *, #143, .T. ) ;
#195 = AXIS2_PLACEMENT_3D ( 'NONE', #109, #128, #208 ) ;
#196 = COORDINATED_UNIVERSAL_TIME_OFFSET ( 5, 0, .BEHIND. ) ;
#197 = CC_DESIGN_PERSON_AND_ORGANIZATION_ASSIGNMENT ( #169, #37, ( #131 ) ) ;
#198 = FACE_OUTER_BOUND ( 'NONE', #231, .T. ) ;
#199 = EDGE_CURVE ( 'NONE', #11, #117, #15, .T. ) ;
#200 = DIRECTION ( 'NONE',  ( 0.0000000000000000000, 0.0000000000000000000, 1.000000000000000000 ) ) ;
#201 = DIRECTION ( 'NONE',  ( -1.000000000000000000, 0.0000000000000000000, 0.0000000000000000000 ) ) ;
#202 = ADVANCED_FACE ( 'NONE', ( #184 ), #158, .F. ) ;
#203 = PLANE ( 'NONE',  #195 ) ;
#204 = ORIENTED_EDGE ( 'NONE', *, *, #22, .T. ) ;
#205 = APPROVAL_DATE_TIME ( #29, #100 ) ;
#206 = APPROVAL_STATUS ( 'not_yet_approved' ) ;
#207 = ORIENTED_EDGE ( 'NONE', *, *, #82, .T. ) ;
#208 = DIRECTION ( 'NONE',  ( 0.0000000000000000000, 0.0000000000000000000, -1.000000000000000000 ) ) ;
#209 = CARTESIAN_POINT ( 'NONE',  ( 0.0000000000000000000, 0.0000000000000000000, 0.0000000000000000000 ) ) ;
#210 = VECTOR ( 'NONE', #14, 1000.000000000000000 ) ;
#211 = COORDINATED_UNIVERSAL_TIME_OFFSET ( 5, 0, .BEHIND. ) ;
#212 = LOCAL_TIME ( 8, 46, 10.00000000000000000, #25 ) ;
#213 =( GEOMETRIC_REPRESENTATION_CONTEXT ( 3 ) GLOBAL_UNCERTAINTY_ASSIGNED_CONTEXT ( ( #181 ) ) GLOBAL_UNIT_ASSIGNED_CONTEXT ( ( #79, #230, #192 ) ) REPRESENTATION_CONTEXT ( 'NONE', 'WORKASPACE' ) );
#214 = PRODUCT_DEFINITION_SHAPE ( 'NONE', 'NONE',  #46 ) ;
#215 = COORDINATED_UNIVERSAL_TIME_OFFSET ( 5, 0, .BEHIND. ) ;
#216 = CLOSED_SHELL ( 'NONE', ( #114, #34, #94, #134, #223, #202 ) ) ;
#217 = AXIS2_PLACEMENT_3D ( 'NONE', #5, #20, #140 ) ;
#218 = CARTESIAN_POINT ( 'NONE',  ( 6.249999999999998200, -6.249999999999998200, -3.000000000000000000 ) ) ;
#219 = VECTOR ( 'NONE', #133, 1000.000000000000000 ) ;
#220 = DIRECTION ( 'NONE',  ( -0.0000000000000000000, -0.0000000000000000000, -1.000000000000000000 ) ) ;
#221 = CARTESIAN_POINT ( 'NONE',  ( 6.249999999999998200, -6.249999999999998200, 3.000000000000000000 ) ) ;
#222 = VERTEX_POINT ( 'NONE', #73 ) ;
#223 = ADVANCED_FACE ( 'NONE', ( #33 ), #115, .T. ) ;
#224 = CARTESIAN_POINT ( 'NONE',  ( 6.249999999999998200, -6.249999999999998200, -3.000000000000000000 ) ) ;
#225 = APPLICATION_PROTOCOL_DEFINITION ( 'international standard', 'config_control_design', 1994, #9 ) ;
#226 = DIRECTION ( 'NONE',  ( -0.0000000000000000000, -0.0000000000000000000, -1.000000000000000000 ) ) ;
#227 = LOCAL_TIME ( 8, 46, 10.00000000000000000, #211 ) ;
#228 = LINE ( 'NONE', #159, #40 ) ;
#229 = CARTESIAN_POINT ( 'NONE',  ( 6.249999999999998200, -6.249999999999998200, -3.000000000000000000 ) ) ;
#230 =( NAMED_UNIT ( * ) PLANE_ANGLE_UNIT ( ) SI_UNIT ( $, .RADIAN. ) );
#231 = EDGE_LOOP ( 'NONE', ( #180, #6, #31, #10 ) ) ;
#232 = PRODUCT ( 'Web Model 37117MX_37120', 'Web Model 37117MX_37120', '', ( #141 ) ) ;
#233 = CC_DESIGN_PERSON_AND_ORGANIZATION_ASSIGNMENT ( #107, #153, ( #46 ) ) ;
#234 = LOCAL_TIME ( 8, 46, 10.00000000000000000, #215 ) ;
#235 = AXIS2_PLACEMENT_3D ( 'NONE', #209, #95, #119 ) ;
#236 = APPROVAL_PERSON_ORGANIZATION ( #87, #83, #135 ) ;
#237 = VECTOR ( 'NONE', #226, 1000.000000000000000 ) ;
ENDSEC;
END-ISO-10303-21;
