ISO-10303-21;
HEADER;
FILE_DESCRIPTION (( 'STEP AP203' ),
    '1' );
FILE_NAME ('Web Model 43216_43228.step',
    '2018-04-02T15:55:41',
    ( '' ),
    ( '' ),
    'SwSTEP 2.0',
    'SolidWorks 2016',
    '' );
FILE_SCHEMA (( 'CONFIG_CONTROL_DESIGN' ));
ENDSEC;

DATA;
#1 = ORIENTED_EDGE ( 'NONE', *, *, #152, .T. ) ;
#2 = DIRECTION ( 'NONE',  ( -0.0000000000000000000, -0.0000000000000000000, 1.000000000000000000 ) ) ;
#3 = CARTESIAN_POINT ( 'NONE',  ( 4.750000000000000000, 12.50000000000000000, -12.50000000000000000 ) ) ;
#4 = DIRECTION ( 'NONE',  ( 1.000000000000000000, 0.0000000000000000000, 0.0000000000000000000 ) ) ;
#5 = DATE_TIME_ROLE ( 'classification_date' ) ;
#6 = EDGE_CURVE ( 'NONE', #49, #159, #13, .T. ) ;
#7 = FACE_OUTER_BOUND ( 'NONE', #65, .T. ) ;
#8 = CARTESIAN_POINT ( 'NONE',  ( -4.750000000000000000, -12.50000000000000000, 12.50000000000000200 ) ) ;
#9 = EDGE_LOOP ( 'NONE', ( #164, #181, #92, #21 ) ) ;
#10 = PLANE ( 'NONE',  #161 ) ;
#11 = ORGANIZATION ( 'UNSPECIFIED', 'UNSPECIFIED', '' ) ;
#12 = DIRECTION ( 'NONE',  ( 0.0000000000000000000, -2.081668171172168500E-016, 1.000000000000000000 ) ) ;
#13 = LINE ( 'NONE', #162, #70 ) ;
#14 = CC_DESIGN_PERSON_AND_ORGANIZATION_ASSIGNMENT ( #93, #45, ( #138 ) ) ;
#15 = LOCAL_TIME ( 11, 55, 40.00000000000000000, #176 ) ;
#16 = VECTOR ( 'NONE', #166, 1000.000000000000000 ) ;
#17 = FACE_OUTER_BOUND ( 'NONE', #68, .T. ) ;
#18 = ORIENTED_EDGE ( 'NONE', *, *, #19, .T. ) ;
#19 = EDGE_CURVE ( 'NONE', #98, #123, #211, .T. ) ;
#20 = CARTESIAN_POINT ( 'NONE',  ( 4.750000000000000000, -12.50000000000000000, 12.50000000000000200 ) ) ;
#21 = ORIENTED_EDGE ( 'NONE', *, *, #234, .T. ) ;
#22 = CARTESIAN_POINT ( 'NONE',  ( 4.750000000000000000, 12.50000000000000000, -12.50000000000000000 ) ) ;
#23 = AXIS2_PLACEMENT_3D ( 'NONE', #183, #37, #125 ) ;
#24 = CARTESIAN_POINT ( 'NONE',  ( -4.750000000000000000, 12.50000000000000000, 12.49999999999999600 ) ) ;
#25 = APPLICATION_CONTEXT ( 'configuration controlled 3d designs of mechanical parts and assemblies' ) ;
#26 = APPROVAL_ROLE ( '' ) ;
#27 = DATE_AND_TIME ( #34, #160 ) ;
#28 = APPROVAL_ROLE ( '' ) ;
#29 = DIRECTION ( 'NONE',  ( -0.0000000000000000000, -0.0000000000000000000, 1.000000000000000000 ) ) ;
#30 = EDGE_LOOP ( 'NONE', ( #74, #134, #120, #194 ) ) ;
#31 = AXIS2_PLACEMENT_3D ( 'NONE', #227, #97, #83 ) ;
#32 = VECTOR ( 'NONE', #62, 1000.000000000000000 ) ;
#33 = VERTEX_POINT ( 'NONE', #186 ) ;
#34 = CALENDAR_DATE ( 2018, 2, 4 ) ;
#35 = LOCAL_TIME ( 11, 55, 40.00000000000000000, #119 ) ;
#36 = PERSON_AND_ORGANIZATION ( #143, #11 ) ;
#37 = DIRECTION ( 'NONE',  ( 1.000000000000000000, 0.0000000000000000000, 0.0000000000000000000 ) ) ;
#38 = VECTOR ( 'NONE', #142, 1000.000000000000000 ) ;
#39 = DESIGN_CONTEXT ( 'detailed design', #206, 'design' ) ;
#40 = MECHANICAL_CONTEXT ( 'NONE', #25, 'mechanical' ) ;
#41 = LOCAL_TIME ( 11, 55, 40.00000000000000000, #50 ) ;
#42 = SECURITY_CLASSIFICATION_LEVEL ( 'unclassified' ) ;
#43 = CARTESIAN_POINT ( 'NONE',  ( 4.750000000000000000, 12.50000000000000000, 12.49999999999999600 ) ) ;
#44 = EDGE_CURVE ( 'NONE', #33, #141, #196, .T. ) ;
#45 = PERSON_AND_ORGANIZATION_ROLE ( 'design_supplier' ) ;
#46 = VERTEX_POINT ( 'NONE', #56 ) ;
#47 = ORIENTED_EDGE ( 'NONE', *, *, #110, .T. ) ;
#48 = APPROVAL ( #111, 'UNSPECIFIED' ) ;
#49 = VERTEX_POINT ( 'NONE', #219 ) ;
#50 = COORDINATED_UNIVERSAL_TIME_OFFSET ( 5, 0, .BEHIND. ) ;
#51 =( GEOMETRIC_REPRESENTATION_CONTEXT ( 3 ) GLOBAL_UNCERTAINTY_ASSIGNED_CONTEXT ( ( #129 ) ) GLOBAL_UNIT_ASSIGNED_CONTEXT ( ( #146, #128, #192 ) ) REPRESENTATION_CONTEXT ( 'NONE', 'WORKASPACE' ) );
#52 = APPROVAL_PERSON_ORGANIZATION ( #179, #154, #28 ) ;
#53 = LINE ( 'NONE', #165, #87 ) ;
#54 = ORIENTED_EDGE ( 'NONE', *, *, #174, .F. ) ;
#55 = DIRECTION ( 'NONE',  ( -0.0000000000000000000, 1.000000000000000000, 2.081668171172168500E-016 ) ) ;
#56 = CARTESIAN_POINT ( 'NONE',  ( -4.750000000000000000, 12.50000000000000000, 12.49999999999999600 ) ) ;
#57 = PERSON_AND_ORGANIZATION_ROLE ( 'design_owner' ) ;
#58 = APPLICATION_PROTOCOL_DEFINITION ( 'international standard', 'config_control_design', 1994, #206 ) ;
#59 = VECTOR ( 'NONE', #130, 1000.000000000000000 ) ;
#60 = CARTESIAN_POINT ( 'NONE',  ( 4.750000000000000000, 12.50000000000000000, 12.49999999999999600 ) ) ;
#61 = ORIENTED_EDGE ( 'NONE', *, *, #71, .T. ) ;
#62 = DIRECTION ( 'NONE',  ( -1.000000000000000000, -0.0000000000000000000, -0.0000000000000000000 ) ) ;
#63 = PERSON_AND_ORGANIZATION ( #143, #11 ) ;
#64 = CARTESIAN_POINT ( 'NONE',  ( 0.0000000000000000000, 0.0000000000000000000, 0.0000000000000000000 ) ) ;
#65 = EDGE_LOOP ( 'NONE', ( #228, #178, #109, #237 ) ) ;
#66 = CC_DESIGN_APPROVAL ( #48, ( #138 ) ) ;
#67 = VECTOR ( 'NONE', #29, 1000.000000000000000 ) ;
#68 = EDGE_LOOP ( 'NONE', ( #47, #54, #156, #18 ) ) ;
#69 = ADVANCED_FACE ( 'NONE', ( #216 ), #169, .T. ) ;
#70 = VECTOR ( 'NONE', #55, 1000.000000000000000 ) ;
#71 = EDGE_CURVE ( 'NONE', #84, #98, #213, .T. ) ;
#72 = FACE_OUTER_BOUND ( 'NONE', #173, .T. ) ;
#73 = DATE_AND_TIME ( #86, #35 ) ;
#74 = ORIENTED_EDGE ( 'NONE', *, *, #82, .T. ) ;
#75 = CARTESIAN_POINT ( 'NONE',  ( -4.750000000000000000, 12.50000000000000000, 12.49999999999999600 ) ) ;
#76 = SHAPE_DEFINITION_REPRESENTATION ( #236, #235 ) ;
#77 = CC_DESIGN_PERSON_AND_ORGANIZATION_ASSIGNMENT ( #115, #114, ( #212 ) ) ;
#78 = DIRECTION ( 'NONE',  ( 1.000000000000000000, 0.0000000000000000000, 0.0000000000000000000 ) ) ;
#79 = COORDINATED_UNIVERSAL_TIME_OFFSET ( 5, 0, .BEHIND. ) ;
#80 = DIRECTION ( 'NONE',  ( 0.0000000000000000000, -1.000000000000000000, -2.081668171172168500E-016 ) ) ;
#81 = CARTESIAN_POINT ( 'NONE',  ( -4.750000000000000000, -12.50000000000000000, 12.50000000000000200 ) ) ;
#82 = EDGE_CURVE ( 'NONE', #159, #46, #185, .T. ) ;
#83 = DIRECTION ( 'NONE',  ( 0.0000000000000000000, -0.0000000000000000000, 1.000000000000000000 ) ) ;
#84 = VERTEX_POINT ( 'NONE', #208 ) ;
#85 = CARTESIAN_POINT ( 'NONE',  ( 4.750000000000000000, 12.50000000000000000, 12.49999999999999600 ) ) ;
#86 = CALENDAR_DATE ( 2018, 2, 4 ) ;
#87 = VECTOR ( 'NONE', #116, 1000.000000000000000 ) ;
#88 = PERSON_AND_ORGANIZATION ( #143, #11 ) ;
#89 = PRODUCT ( 'Web Model 43216_43228', 'Web Model 43216_43228', '', ( #40 ) ) ;
#90 = APPROVAL_PERSON_ORGANIZATION ( #63, #48, #26 ) ;
#91 = CC_DESIGN_PERSON_AND_ORGANIZATION_ASSIGNMENT ( #36, #96, ( #95 ) ) ;
#92 = ORIENTED_EDGE ( 'NONE', *, *, #71, .F. ) ;
#93 = PERSON_AND_ORGANIZATION ( #143, #11 ) ;
#94 = DIRECTION ( 'NONE',  ( 0.0000000000000000000, -1.000000000000000000, 2.081668171172168500E-016 ) ) ;
#95 = PRODUCT_DEFINITION ( 'UNKNOWN', '', #138, #39 ) ;
#96 = PERSON_AND_ORGANIZATION_ROLE ( 'creator' ) ;
#97 = DIRECTION ( 'NONE',  ( -0.0000000000000000000, 1.000000000000000000, 0.0000000000000000000 ) ) ;
#98 = VERTEX_POINT ( 'NONE', #224 ) ;
#99 = APPROVAL_DATE_TIME ( #27, #154 ) ;
#100 = PERSON_AND_ORGANIZATION_ROLE ( 'creator' ) ;
#101 = PLANE ( 'NONE',  #151 ) ;
#102 = FACE_OUTER_BOUND ( 'NONE', #30, .T. ) ;
#103 = ORIENTED_EDGE ( 'NONE', *, *, #117, .T. ) ;
#104 = CC_DESIGN_APPROVAL ( #154, ( #212 ) ) ;
#105 = APPROVAL_DATE_TIME ( #191, #193 ) ;
#106 = AXIS2_PLACEMENT_3D ( 'NONE', #132, #4, #171 ) ;
#107 = CC_DESIGN_SECURITY_CLASSIFICATION ( #212, ( #138 ) ) ;
#108 = FACE_OUTER_BOUND ( 'NONE', #9, .T. ) ;
#109 = ORIENTED_EDGE ( 'NONE', *, *, #6, .F. ) ;
#110 = EDGE_CURVE ( 'NONE', #123, #49, #175, .T. ) ;
#111 = APPROVAL_STATUS ( 'not_yet_approved' ) ;
#112 = VECTOR ( 'NONE', #2, 1000.000000000000000 ) ;
#113 = DIRECTION ( 'NONE',  ( 0.0000000000000000000, 0.0000000000000000000, -1.000000000000000000 ) ) ;
#114 = PERSON_AND_ORGANIZATION_ROLE ( 'classification_officer' ) ;
#115 = PERSON_AND_ORGANIZATION ( #143, #11 ) ;
#116 = DIRECTION ( 'NONE',  ( -1.000000000000000000, -0.0000000000000000000, -0.0000000000000000000 ) ) ;
#117 = EDGE_CURVE ( 'NONE', #98, #33, #168, .T. ) ;
#118 = LINE ( 'NONE', #60, #67 ) ;
#119 = COORDINATED_UNIVERSAL_TIME_OFFSET ( 5, 0, .BEHIND. ) ;
#120 = ORIENTED_EDGE ( 'NONE', *, *, #152, .F. ) ;
#121 = COORDINATED_UNIVERSAL_TIME_OFFSET ( 5, 0, .BEHIND. ) ;
#122 = EDGE_CURVE ( 'NONE', #141, #159, #53, .T. ) ;
#123 = VERTEX_POINT ( 'NONE', #8 ) ;
#124 = DATE_AND_TIME ( #136, #15 ) ;
#125 = DIRECTION ( 'NONE',  ( 0.0000000000000000000, 0.0000000000000000000, -1.000000000000000000 ) ) ;
#126 = VECTOR ( 'NONE', #150, 1000.000000000000000 ) ;
#127 = PERSON_AND_ORGANIZATION ( #143, #11 ) ;
#128 =( NAMED_UNIT ( * ) PLANE_ANGLE_UNIT ( ) SI_UNIT ( $, .RADIAN. ) );
#129 = UNCERTAINTY_MEASURE_WITH_UNIT (LENGTH_MEASURE( 1.000000000000000100E-005 ), #146, 'distance_accuracy_value', 'NONE');
#130 = DIRECTION ( 'NONE',  ( 0.0000000000000000000, -1.000000000000000000, 2.081668171172168500E-016 ) ) ;
#131 = APPROVAL_STATUS ( 'not_yet_approved' ) ;
#132 = CARTESIAN_POINT ( 'NONE',  ( -4.750000000000000000, 0.0000000000000000000, 0.0000000000000000000 ) ) ;
#133 = APPROVAL_STATUS ( 'not_yet_approved' ) ;
#134 = ORIENTED_EDGE ( 'NONE', *, *, #234, .F. ) ;
#135 = AXIS2_PLACEMENT_3D ( 'NONE', #64, #190, #78 ) ;
#136 = CALENDAR_DATE ( 2018, 2, 4 ) ;
#137 = EDGE_CURVE ( 'NONE', #46, #123, #158, .T. ) ;
#138 = PRODUCT_DEFINITION_FORMATION_WITH_SPECIFIED_SOURCE ( 'ANY', '', #89, .NOT_KNOWN. ) ;
#139 = ADVANCED_FACE ( 'NONE', ( #7 ), #226, .F. ) ;
#140 = CALENDAR_DATE ( 2018, 2, 4 ) ;
#141 = VERTEX_POINT ( 'NONE', #147 ) ;
#142 = DIRECTION ( 'NONE',  ( -0.0000000000000000000, 1.000000000000000000, 2.081668171172168500E-016 ) ) ;
#143 = PERSON ( 'UNSPECIFIED', 'UNSPECIFIED', 'UNSPECIFIED', ('UNSPECIFIED'), ('UNSPECIFIED'), ('UNSPECIFIED') ) ;
#144 = CC_DESIGN_PERSON_AND_ORGANIZATION_ASSIGNMENT ( #127, #57, ( #89 ) ) ;
#145 = APPLICATION_PROTOCOL_DEFINITION ( 'international standard', 'config_control_design', 1994, #25 ) ;
#146 =( LENGTH_UNIT ( ) NAMED_UNIT ( * ) SI_UNIT ( .MILLI., .METRE. ) );
#147 = CARTESIAN_POINT ( 'NONE',  ( 4.750000000000000000, 12.50000000000000000, -12.50000000000000000 ) ) ;
#148 = LINE ( 'NONE', #85, #32 ) ;
#149 = DIRECTION ( 'NONE',  ( -1.000000000000000000, -0.0000000000000000000, -0.0000000000000000000 ) ) ;
#150 = DIRECTION ( 'NONE',  ( 0.0000000000000000000, 0.0000000000000000000, -1.000000000000000000 ) ) ;
#151 = AXIS2_PLACEMENT_3D ( 'NONE', #3, #12, #80 ) ;
#152 = EDGE_CURVE ( 'NONE', #141, #84, #118, .T. ) ;
#153 = DIRECTION ( 'NONE',  ( 0.0000000000000000000, 1.000000000000000000, -2.081668171172168500E-016 ) ) ;
#154 = APPROVAL ( #131, 'UNSPECIFIED' ) ;
#155 = VECTOR ( 'NONE', #149, 1000.000000000000000 ) ;
#156 = ORIENTED_EDGE ( 'NONE', *, *, #117, .F. ) ;
#157 = CC_DESIGN_APPROVAL ( #193, ( #95 ) ) ;
#158 = LINE ( 'NONE', #75, #59 ) ;
#159 = VERTEX_POINT ( 'NONE', #167 ) ;
#160 = LOCAL_TIME ( 11, 55, 40.00000000000000000, #121 ) ;
#161 = AXIS2_PLACEMENT_3D ( 'NONE', #43, #229, #188 ) ;
#162 = CARTESIAN_POINT ( 'NONE',  ( -4.750000000000000000, 12.50000000000000000, -12.50000000000000000 ) ) ;
#163 = PRODUCT_RELATED_PRODUCT_CATEGORY ( 'detail', '', ( #89 ) ) ;
#164 = ORIENTED_EDGE ( 'NONE', *, *, #137, .T. ) ;
#165 = CARTESIAN_POINT ( 'NONE',  ( 4.750000000000000000, 12.50000000000000000, -12.50000000000000000 ) ) ;
#166 = DIRECTION ( 'NONE',  ( -1.000000000000000000, -0.0000000000000000000, -0.0000000000000000000 ) ) ;
#167 = CARTESIAN_POINT ( 'NONE',  ( -4.750000000000000000, 12.50000000000000000, -12.50000000000000000 ) ) ;
#168 = LINE ( 'NONE', #170, #180 ) ;
#169 = PLANE ( 'NONE',  #23 ) ;
#170 = CARTESIAN_POINT ( 'NONE',  ( 4.750000000000000000, -12.50000000000000000, 12.50000000000000200 ) ) ;
#171 = DIRECTION ( 'NONE',  ( 0.0000000000000000000, 0.0000000000000000000, -1.000000000000000000 ) ) ;
#172 = DIRECTION ( 'NONE',  ( 0.0000000000000000000, -2.081668171172168500E-016, -1.000000000000000000 ) ) ;
#173 = EDGE_LOOP ( 'NONE', ( #199, #197, #202, #232 ) ) ;
#174 = EDGE_CURVE ( 'NONE', #33, #49, #205, .T. ) ;
#175 = LINE ( 'NONE', #81, #126 ) ;
#176 = COORDINATED_UNIVERSAL_TIME_OFFSET ( 5, 0, .BEHIND. ) ;
#177 = CC_DESIGN_PERSON_AND_ORGANIZATION_ASSIGNMENT ( #187, #100, ( #138 ) ) ;
#178 = ORIENTED_EDGE ( 'NONE', *, *, #82, .F. ) ;
#179 = PERSON_AND_ORGANIZATION ( #143, #11 ) ;
#180 = VECTOR ( 'NONE', #113, 1000.000000000000000 ) ;
#181 = ORIENTED_EDGE ( 'NONE', *, *, #19, .F. ) ;
#182 = DATE_AND_TIME ( #198, #41 ) ;
#183 = CARTESIAN_POINT ( 'NONE',  ( 4.750000000000000000, 0.0000000000000000000, 0.0000000000000000000 ) ) ;
#184 = MANIFOLD_SOLID_BREP ( 'Boss-Extrude1', #200 ) ;
#185 = LINE ( 'NONE', #24, #112 ) ;
#186 = CARTESIAN_POINT ( 'NONE',  ( 4.750000000000000000, -12.50000000000000000, -12.50000000000000500 ) ) ;
#187 = PERSON_AND_ORGANIZATION ( #143, #11 ) ;
#188 = DIRECTION ( 'NONE',  ( 0.0000000000000000000, -0.0000000000000000000, -1.000000000000000000 ) ) ;
#189 = PLANE ( 'NONE',  #204 ) ;
#190 = DIRECTION ( 'NONE',  ( 0.0000000000000000000, 0.0000000000000000000, 1.000000000000000000 ) ) ;
#191 = DATE_AND_TIME ( #140, #217 ) ;
#192 =( NAMED_UNIT ( * ) SI_UNIT ( $, .STERADIAN. ) SOLID_ANGLE_UNIT ( ) );
#193 = APPROVAL ( #133, 'UNSPECIFIED' ) ;
#194 = ORIENTED_EDGE ( 'NONE', *, *, #122, .T. ) ;
#195 = ADVANCED_FACE ( 'NONE', ( #17 ), #225, .F. ) ;
#196 = LINE ( 'NONE', #22, #38 ) ;
#197 = ORIENTED_EDGE ( 'NONE', *, *, #122, .F. ) ;
#198 = CALENDAR_DATE ( 2018, 2, 4 ) ;
#199 = ORIENTED_EDGE ( 'NONE', *, *, #6, .T. ) ;
#200 = CLOSED_SHELL ( 'NONE', ( #215, #195, #230, #231, #69, #139 ) ) ;
#201 = CC_DESIGN_DATE_AND_TIME_ASSIGNMENT ( #124, #5, ( #212 ) ) ;
#202 = ORIENTED_EDGE ( 'NONE', *, *, #44, .F. ) ;
#203 = APPROVAL_ROLE ( '' ) ;
#204 = AXIS2_PLACEMENT_3D ( 'NONE', #210, #172, #153 ) ;
#205 = LINE ( 'NONE', #209, #155 ) ;
#206 = APPLICATION_CONTEXT ( 'configuration controlled 3d designs of mechanical parts and assemblies' ) ;
#207 = EDGE_LOOP ( 'NONE', ( #61, #103, #214, #1 ) ) ;
#208 = CARTESIAN_POINT ( 'NONE',  ( 4.750000000000000000, 12.50000000000000000, 12.49999999999999600 ) ) ;
#209 = CARTESIAN_POINT ( 'NONE',  ( 4.750000000000000000, -12.50000000000000000, -12.50000000000000500 ) ) ;
#210 = CARTESIAN_POINT ( 'NONE',  ( 4.750000000000000000, 12.50000000000000000, 12.49999999999999600 ) ) ;
#211 = LINE ( 'NONE', #20, #16 ) ;
#212 = SECURITY_CLASSIFICATION ( '', '', #42 ) ;
#213 = LINE ( 'NONE', #221, #220 ) ;
#214 = ORIENTED_EDGE ( 'NONE', *, *, #44, .T. ) ;
#215 = ADVANCED_FACE ( 'NONE', ( #108 ), #189, .F. ) ;
#216 = FACE_OUTER_BOUND ( 'NONE', #207, .T. ) ;
#217 = LOCAL_TIME ( 11, 55, 40.00000000000000000, #79 ) ;
#218 = CC_DESIGN_DATE_AND_TIME_ASSIGNMENT ( #182, #222, ( #95 ) ) ;
#219 = CARTESIAN_POINT ( 'NONE',  ( -4.750000000000000000, -12.50000000000000000, -12.50000000000000500 ) ) ;
#220 = VECTOR ( 'NONE', #94, 1000.000000000000000 ) ;
#221 = CARTESIAN_POINT ( 'NONE',  ( 4.750000000000000000, 12.50000000000000000, 12.49999999999999600 ) ) ;
#222 = DATE_TIME_ROLE ( 'creation_date' ) ;
#223 = APPROVAL_DATE_TIME ( #73, #48 ) ;
#224 = CARTESIAN_POINT ( 'NONE',  ( 4.750000000000000000, -12.50000000000000000, 12.50000000000000200 ) ) ;
#225 = PLANE ( 'NONE',  #31 ) ;
#226 = PLANE ( 'NONE',  #106 ) ;
#227 = CARTESIAN_POINT ( 'NONE',  ( 4.750000000000000000, -12.50000000000000000, 12.50000000000000200 ) ) ;
#228 = ORIENTED_EDGE ( 'NONE', *, *, #137, .F. ) ;
#229 = DIRECTION ( 'NONE',  ( 0.0000000000000000000, -1.000000000000000000, 0.0000000000000000000 ) ) ;
#230 = ADVANCED_FACE ( 'NONE', ( #72 ), #101, .F. ) ;
#231 = ADVANCED_FACE ( 'NONE', ( #102 ), #10, .F. ) ;
#232 = ORIENTED_EDGE ( 'NONE', *, *, #174, .T. ) ;
#233 = APPROVAL_PERSON_ORGANIZATION ( #88, #193, #203 ) ;
#234 = EDGE_CURVE ( 'NONE', #84, #46, #148, .T. ) ;
#235 = ADVANCED_BREP_SHAPE_REPRESENTATION ( 'Web Model 43216_43228', ( #184, #135 ), #51 ) ;
#236 = PRODUCT_DEFINITION_SHAPE ( 'NONE', 'NONE',  #95 ) ;
#237 = ORIENTED_EDGE ( 'NONE', *, *, #110, .F. ) ;
ENDSEC;
END-ISO-10303-21;
