ISO-10303-21;
HEADER;
FILE_DESCRIPTION (( 'STEP AP203' ),
    '1' );
FILE_NAME ('Web Model 68522_47941.step',
    '2017-03-22T18:28:49',
    ( '' ),
    ( '' ),
    'SwSTEP 2.0',
    'SolidWorks 2016',
    '' );
FILE_SCHEMA (( 'CONFIG_CONTROL_DESIGN' ));
ENDSEC;

DATA;
#1 = COORDINATED_UNIVERSAL_TIME_OFFSET ( 5, 0, .BEHIND. ) ;
#2 = LOCAL_TIME ( 14, 28, 49.00000000000000000, #41 ) ;
#3 = DIRECTION ( 'NONE',  ( 0.0000000000000000000, 0.0000000000000000000, 1.000000000000000000 ) ) ;
#4 = EDGE_LOOP ( 'NONE', ( #90, #128, #87, #31 ) ) ;
#5 = DIRECTION ( 'NONE',  ( -0.0000000000000000000, -1.000000000000000000, -0.0000000000000000000 ) ) ;
#6 = LOCAL_TIME ( 14, 28, 49.00000000000000000, #72 ) ;
#7 = AXIS2_PLACEMENT_3D ( 'NONE', #159, #63, #157 ) ;
#8 = CALENDAR_DATE ( 2017, 22, 3 ) ;
#9 = FACE_OUTER_BOUND ( 'NONE', #170, .T. ) ;
#10 = DIRECTION ( 'NONE',  ( 0.0000000000000000000, 1.000000000000000000, 0.0000000000000000000 ) ) ;
#11 = DIRECTION ( 'NONE',  ( 0.0000000000000000000, 1.000000000000000000, 0.0000000000000000000 ) ) ;
#12 = EDGE_CURVE ( 'NONE', #124, #165, #151, .T. ) ;
#13 = SECURITY_CLASSIFICATION ( '', '', #81 ) ;
#14 = PERSON_AND_ORGANIZATION_ROLE ( 'classification_officer' ) ;
#15 = CARTESIAN_POINT ( 'NONE',  ( 0.0000000000000000000, 0.0000000000000000000, 0.0000000000000000000 ) ) ;
#16 = MECHANICAL_CONTEXT ( 'NONE', #172, 'mechanical' ) ;
#17 = LINE ( 'NONE', #134, #108 ) ;
#18 = PERSON_AND_ORGANIZATION ( #89, #47 ) ;
#19 = AXIS2_PLACEMENT_3D ( 'NONE', #79, #10, #93 ) ;
#20 = CIRCLE ( 'NONE', #139, 6.250000000000000000 ) ;
#21 = EDGE_CURVE ( 'NONE', #142, #165, #46, .T. ) ;
#22 = CC_DESIGN_PERSON_AND_ORGANIZATION_ASSIGNMENT ( #107, #14, ( #13 ) ) ;
#23 = CARTESIAN_POINT ( 'NONE',  ( 0.0000000000000000000, 2.000000000000000000, 0.0000000000000000000 ) ) ;
#24 = MANIFOLD_SOLID_BREP ( 'Extrude1', #30 ) ;
#25 = APPROVAL_STATUS ( 'not_yet_approved' ) ;
#26 = CARTESIAN_POINT ( 'NONE',  ( 0.0000000000000000000, 0.0000000000000000000, -6.250000000000000000 ) ) ;
#27 = AXIS2_PLACEMENT_3D ( 'NONE', #80, #11, #94 ) ;
#28 = APPLICATION_CONTEXT ( 'configuration controlled 3d designs of mechanical parts and assemblies' ) ;
#29 = EDGE_CURVE ( 'NONE', #60, #124, #20, .T. ) ;
#30 = CLOSED_SHELL ( 'NONE', ( #160, #101, #86, #42 ) ) ;
#31 = ORIENTED_EDGE ( 'NONE', *, *, #118, .T. ) ;
#32 = DATE_AND_TIME ( #59, #92 ) ;
#33 = DIRECTION ( 'NONE',  ( 0.0000000000000000000, 1.000000000000000000, 0.0000000000000000000 ) ) ;
#34 = AXIS2_PLACEMENT_3D ( 'NONE', #88, #119, #109 ) ;
#35 = ORIENTED_EDGE ( 'NONE', *, *, #21, .T. ) ;
#36 = PERSON_AND_ORGANIZATION ( #89, #47 ) ;
#37 = EDGE_CURVE ( 'NONE', #60, #142, #17, .T. ) ;
#38 = ORIENTED_EDGE ( 'NONE', *, *, #113, .T. ) ;
#39 = APPROVAL_STATUS ( 'not_yet_approved' ) ;
#40 = PERSON_AND_ORGANIZATION ( #89, #47 ) ;
#41 = COORDINATED_UNIVERSAL_TIME_OFFSET ( 5, 0, .BEHIND. ) ;
#42 = ADVANCED_FACE ( 'NONE', ( #148 ), #131, .F. ) ;
#43 = PRODUCT_DEFINITION_SHAPE ( 'NONE', 'NONE',  #85 ) ;
#44 = LOCAL_TIME ( 14, 28, 49.00000000000000000, #70 ) ;
#45 = FACE_OUTER_BOUND ( 'NONE', #173, .T. ) ;
#46 = CIRCLE ( 'NONE', #127, 6.250000000000000000 ) ;
#47 = ORGANIZATION ( 'UNSPECIFIED', 'UNSPECIFIED', '' ) ;
#48 = CARTESIAN_POINT ( 'NONE',  ( 0.0000000000000000000, 2.000000000000000000, -6.250000000000000000 ) ) ;
#49 = PERSON_AND_ORGANIZATION_ROLE ( 'creator' ) ;
#50 =( NAMED_UNIT ( * ) PLANE_ANGLE_UNIT ( ) SI_UNIT ( $, .RADIAN. ) );
#51 =( GEOMETRIC_REPRESENTATION_CONTEXT ( 3 ) GLOBAL_UNCERTAINTY_ASSIGNED_CONTEXT ( ( #161 ) ) GLOBAL_UNIT_ASSIGNED_CONTEXT ( ( #123, #50, #141 ) ) REPRESENTATION_CONTEXT ( 'NONE', 'WORKASPACE' ) );
#52 = ORIENTED_EDGE ( 'NONE', *, *, #21, .F. ) ;
#53 = DIRECTION ( 'NONE',  ( -0.0000000000000000000, -1.000000000000000000, -0.0000000000000000000 ) ) ;
#54 = CARTESIAN_POINT ( 'NONE',  ( 0.0000000000000000000, 0.0000000000000000000, 0.0000000000000000000 ) ) ;
#55 = AXIS2_PLACEMENT_3D ( 'NONE', #23, #168, #82 ) ;
#56 = APPROVAL_STATUS ( 'not_yet_approved' ) ;
#57 = ORIENTED_EDGE ( 'NONE', *, *, #29, .F. ) ;
#58 = EDGE_LOOP ( 'NONE', ( #91, #52 ) ) ;
#59 = CALENDAR_DATE ( 2017, 22, 3 ) ;
#60 = VERTEX_POINT ( 'NONE', #152 ) ;
#61 = DATE_AND_TIME ( #98, #136 ) ;
#62 = APPROVAL_DATE_TIME ( #100, #120 ) ;
#63 = DIRECTION ( 'NONE',  ( 0.0000000000000000000, 1.000000000000000000, 0.0000000000000000000 ) ) ;
#64 = APPROVAL_DATE_TIME ( #102, #95 ) ;
#65 = APPROVAL_PERSON_ORGANIZATION ( #103, #120, #112 ) ;
#66 = CYLINDRICAL_SURFACE ( 'NONE', #34, 6.250000000000000000 ) ;
#67 = AXIS2_PLACEMENT_3D ( 'NONE', #15, #69, #83 ) ;
#68 = PERSON_AND_ORGANIZATION_ROLE ( 'creator' ) ;
#69 = DIRECTION ( 'NONE',  ( 0.0000000000000000000, 0.0000000000000000000, 1.000000000000000000 ) ) ;
#70 = COORDINATED_UNIVERSAL_TIME_OFFSET ( 5, 0, .BEHIND. ) ;
#71 = CIRCLE ( 'NONE', #7, 6.250000000000000000 ) ;
#72 = COORDINATED_UNIVERSAL_TIME_OFFSET ( 5, 0, .BEHIND. ) ;
#73 = SHAPE_DEFINITION_REPRESENTATION ( #43, #126 ) ;
#74 = DIRECTION ( 'NONE',  ( 0.0000000000000000000, 1.000000000000000000, 0.0000000000000000000 ) ) ;
#75 = CC_DESIGN_PERSON_AND_ORGANIZATION_ASSIGNMENT ( #18, #99, ( #135 ) ) ;
#76 = CARTESIAN_POINT ( 'NONE',  ( 0.0000000000000000000, 2.000000000000000000, -6.250000000000000000 ) ) ;
#77 = DIRECTION ( 'NONE',  ( 0.0000000000000000000, -0.0000000000000000000, 1.000000000000000000 ) ) ;
#78 = ORIENTED_EDGE ( 'NONE', *, *, #12, .F. ) ;
#79 = CARTESIAN_POINT ( 'NONE',  ( 0.0000000000000000000, 2.000000000000000000, 0.0000000000000000000 ) ) ;
#80 = CARTESIAN_POINT ( 'NONE',  ( 0.0000000000000000000, 2.000000000000000000, 0.0000000000000000000 ) ) ;
#81 = SECURITY_CLASSIFICATION_LEVEL ( 'unclassified' ) ;
#82 = DIRECTION ( 'NONE',  ( 0.0000000000000000000, 0.0000000000000000000, -1.000000000000000000 ) ) ;
#83 = DIRECTION ( 'NONE',  ( 1.000000000000000000, 0.0000000000000000000, 0.0000000000000000000 ) ) ;
#84 = CYLINDRICAL_SURFACE ( 'NONE', #55, 6.250000000000000000 ) ;
#85 = PRODUCT_DEFINITION ( 'UNKNOWN', '', #133, #111 ) ;
#86 = ADVANCED_FACE ( 'NONE', ( #9 ), #167, .T. ) ;
#87 = ORIENTED_EDGE ( 'NONE', *, *, #12, .T. ) ;
#88 = CARTESIAN_POINT ( 'NONE',  ( 0.0000000000000000000, 2.000000000000000000, 0.0000000000000000000 ) ) ;
#89 = PERSON ( 'UNSPECIFIED', 'UNSPECIFIED', 'UNSPECIFIED', ('UNSPECIFIED'), ('UNSPECIFIED'), ('UNSPECIFIED') ) ;
#90 = ORIENTED_EDGE ( 'NONE', *, *, #37, .F. ) ;
#91 = ORIENTED_EDGE ( 'NONE', *, *, #118, .F. ) ;
#92 = LOCAL_TIME ( 14, 28, 49.00000000000000000, #130 ) ;
#93 = DIRECTION ( 'NONE',  ( 0.0000000000000000000, -0.0000000000000000000, 1.000000000000000000 ) ) ;
#94 = DIRECTION ( 'NONE',  ( 0.0000000000000000000, 0.0000000000000000000, 1.000000000000000000 ) ) ;
#95 = APPROVAL ( #39, 'UNSPECIFIED' ) ;
#96 = DATE_TIME_ROLE ( 'classification_date' ) ;
#97 = APPLICATION_PROTOCOL_DEFINITION ( 'international standard', 'config_control_design', 1994, #28 ) ;
#98 = CALENDAR_DATE ( 2017, 22, 3 ) ;
#99 = PERSON_AND_ORGANIZATION_ROLE ( 'design_owner' ) ;
#100 = DATE_AND_TIME ( #137, #2 ) ;
#101 = ADVANCED_FACE ( 'NONE', ( #144 ), #66, .T. ) ;
#102 = DATE_AND_TIME ( #140, #6 ) ;
#103 = PERSON_AND_ORGANIZATION ( #89, #47 ) ;
#104 = CIRCLE ( 'NONE', #27, 6.250000000000000000 ) ;
#105 = CARTESIAN_POINT ( 'NONE',  ( 0.0000000000000000000, 2.000000000000000000, 0.0000000000000000000 ) ) ;
#106 = CC_DESIGN_APPROVAL ( #95, ( #85 ) ) ;
#107 = PERSON_AND_ORGANIZATION ( #89, #47 ) ;
#108 = VECTOR ( 'NONE', #53, 1000.000000000000000 ) ;
#109 = DIRECTION ( 'NONE',  ( 0.0000000000000000000, 0.0000000000000000000, -1.000000000000000000 ) ) ;
#110 = APPROVAL_PERSON_ORGANIZATION ( #149, #95, #122 ) ;
#111 = DESIGN_CONTEXT ( 'detailed design', #28, 'design' ) ;
#112 = APPROVAL_ROLE ( '' ) ;
#113 = EDGE_CURVE ( 'NONE', #124, #60, #104, .T. ) ;
#114 = VECTOR ( 'NONE', #5, 1000.000000000000000 ) ;
#115 = CC_DESIGN_DATE_AND_TIME_ASSIGNMENT ( #143, #96, ( #13 ) ) ;
#116 = CC_DESIGN_PERSON_AND_ORGANIZATION_ASSIGNMENT ( #40, #49, ( #85 ) ) ;
#117 = DIRECTION ( 'NONE',  ( 0.0000000000000000000, 0.0000000000000000000, 1.000000000000000000 ) ) ;
#118 = EDGE_CURVE ( 'NONE', #165, #142, #71, .T. ) ;
#119 = DIRECTION ( 'NONE',  ( -0.0000000000000000000, -1.000000000000000000, -0.0000000000000000000 ) ) ;
#120 = APPROVAL ( #25, 'UNSPECIFIED' ) ;
#121 = CC_DESIGN_DATE_AND_TIME_ASSIGNMENT ( #61, #138, ( #85 ) ) ;
#122 = APPROVAL_ROLE ( '' ) ;
#123 =( LENGTH_UNIT ( ) NAMED_UNIT ( * ) SI_UNIT ( .MILLI., .METRE. ) );
#124 = VERTEX_POINT ( 'NONE', #48 ) ;
#125 = PERSON_AND_ORGANIZATION ( #89, #47 ) ;
#126 = ADVANCED_BREP_SHAPE_REPRESENTATION ( 'Web Model 68522_47941', ( #24, #67 ), #51 ) ;
#127 = AXIS2_PLACEMENT_3D ( 'NONE', #54, #74, #3 ) ;
#128 = ORIENTED_EDGE ( 'NONE', *, *, #113, .F. ) ;
#129 = ORIENTED_EDGE ( 'NONE', *, *, #37, .T. ) ;
#130 = COORDINATED_UNIVERSAL_TIME_OFFSET ( 5, 0, .BEHIND. ) ;
#131 = PLANE ( 'NONE',  #171 ) ;
#132 = CC_DESIGN_APPROVAL ( #120, ( #13 ) ) ;
#133 = PRODUCT_DEFINITION_FORMATION_WITH_SPECIFIED_SOURCE ( 'ANY', '', #135, .NOT_KNOWN. ) ;
#134 = CARTESIAN_POINT ( 'NONE',  ( 7.654042494670957600E-016, 2.000000000000000000, 6.250000000000000000 ) ) ;
#135 = PRODUCT ( 'Web Model 68522_47941', 'Web Model 68522_47941', '', ( #16 ) ) ;
#136 = LOCAL_TIME ( 14, 28, 49.00000000000000000, #1 ) ;
#137 = CALENDAR_DATE ( 2017, 22, 3 ) ;
#138 = DATE_TIME_ROLE ( 'creation_date' ) ;
#139 = AXIS2_PLACEMENT_3D ( 'NONE', #105, #33, #117 ) ;
#140 = CALENDAR_DATE ( 2017, 22, 3 ) ;
#141 =( NAMED_UNIT ( * ) SI_UNIT ( $, .STERADIAN. ) SOLID_ANGLE_UNIT ( ) );
#142 = VERTEX_POINT ( 'NONE', #153 ) ;
#143 = DATE_AND_TIME ( #8, #44 ) ;
#144 = FACE_OUTER_BOUND ( 'NONE', #4, .T. ) ;
#145 = CC_DESIGN_SECURITY_CLASSIFICATION ( #13, ( #133 ) ) ;
#146 = APPROVAL ( #56, 'UNSPECIFIED' ) ;
#147 = PERSON_AND_ORGANIZATION ( #89, #47 ) ;
#148 = FACE_OUTER_BOUND ( 'NONE', #58, .T. ) ;
#149 = PERSON_AND_ORGANIZATION ( #89, #47 ) ;
#150 = CARTESIAN_POINT ( 'NONE',  ( 0.0000000000000000000, 0.0000000000000000000, 0.0000000000000000000 ) ) ;
#151 = LINE ( 'NONE', #76, #114 ) ;
#152 = CARTESIAN_POINT ( 'NONE',  ( 7.654042494670957600E-016, 2.000000000000000000, 6.250000000000000000 ) ) ;
#153 = CARTESIAN_POINT ( 'NONE',  ( 7.654042494670957600E-016, 0.0000000000000000000, 6.250000000000000000 ) ) ;
#154 = PRODUCT_RELATED_PRODUCT_CATEGORY ( 'detail', '', ( #135 ) ) ;
#155 = CC_DESIGN_APPROVAL ( #146, ( #133 ) ) ;
#156 = APPROVAL_ROLE ( '' ) ;
#157 = DIRECTION ( 'NONE',  ( 0.0000000000000000000, 0.0000000000000000000, 1.000000000000000000 ) ) ;
#158 = APPLICATION_PROTOCOL_DEFINITION ( 'international standard', 'config_control_design', 1994, #172 ) ;
#159 = CARTESIAN_POINT ( 'NONE',  ( 0.0000000000000000000, 0.0000000000000000000, 0.0000000000000000000 ) ) ;
#160 = ADVANCED_FACE ( 'NONE', ( #45 ), #84, .T. ) ;
#161 = UNCERTAINTY_MEASURE_WITH_UNIT (LENGTH_MEASURE( 1.000000000000000100E-005 ), #123, 'distance_accuracy_value', 'NONE');
#162 = CC_DESIGN_PERSON_AND_ORGANIZATION_ASSIGNMENT ( #125, #68, ( #133 ) ) ;
#163 = DIRECTION ( 'NONE',  ( 0.0000000000000000000, 1.000000000000000000, 0.0000000000000000000 ) ) ;
#164 = ORIENTED_EDGE ( 'NONE', *, *, #29, .T. ) ;
#165 = VERTEX_POINT ( 'NONE', #26 ) ;
#166 = APPROVAL_DATE_TIME ( #32, #146 ) ;
#167 = PLANE ( 'NONE',  #19 ) ;
#168 = DIRECTION ( 'NONE',  ( -0.0000000000000000000, -1.000000000000000000, -0.0000000000000000000 ) ) ;
#169 = PERSON_AND_ORGANIZATION_ROLE ( 'design_supplier' ) ;
#170 = EDGE_LOOP ( 'NONE', ( #38, #164 ) ) ;
#171 = AXIS2_PLACEMENT_3D ( 'NONE', #150, #163, #77 ) ;
#172 = APPLICATION_CONTEXT ( 'configuration controlled 3d designs of mechanical parts and assemblies' ) ;
#173 = EDGE_LOOP ( 'NONE', ( #57, #129, #35, #78 ) ) ;
#174 = APPROVAL_PERSON_ORGANIZATION ( #36, #146, #156 ) ;
#175 = CC_DESIGN_PERSON_AND_ORGANIZATION_ASSIGNMENT ( #147, #169, ( #133 ) ) ;
ENDSEC;
END-ISO-10303-21;
