ISO-10303-21;
HEADER;
FILE_DESCRIPTION (( 'STEP AP203' ),
    '1' );
FILE_NAME ('TTN041009-E0W.STEP',
    '2019-07-16T13:05:14',
    ( '' ),
    ( '' ),
    'SwSTEP 2.0',
    'SolidWorks 2018',
    '' );
FILE_SCHEMA (( 'CONFIG_CONTROL_DESIGN' ));
ENDSEC;

DATA;
#1 = CYLINDRICAL_SURFACE ( 'NONE', #16, 50.79999999999999716 ) ;
#2 = DIRECTION ( 'NONE',  ( -0.0000000000000000000, -1.000000000000000000, -0.0000000000000000000 ) ) ;
#3 = ORIENTED_EDGE ( 'NONE', *, *, #30, .T. ) ;
#4 = DIRECTION ( 'NONE',  ( 0.0000000000000000000, 0.0000000000000000000, -1.000000000000000000 ) ) ;
#5 = AXIS2_PLACEMENT_3D ( 'NONE', #51, #186, #76 ) ;
#6 = COORDINATED_UNIVERSAL_TIME_OFFSET ( 5, 0, .BEHIND. ) ;
#7 = CONICAL_SURFACE ( 'NONE', #175, 50.54999999999999716, 0.7853981633974760346 ) ;
#8 = SECURITY_CLASSIFICATION_LEVEL ( 'unclassified' ) ;
#9 = AXIS2_PLACEMENT_3D ( 'NONE', #55, #34, #244 ) ;
#10 = LINE ( 'NONE', #52, #47 ) ;
#11 = CARTESIAN_POINT ( 'NONE',  ( 6.221205739668553730E-15, 0.2499999999999863443, 50.79999999999999716 ) ) ;
#12 =( NAMED_UNIT ( * ) PLANE_ANGLE_UNIT ( ) SI_UNIT ( $, .RADIAN. ) );
#13 = DIRECTION ( 'NONE',  ( -0.0000000000000000000, -1.000000000000000000, -0.0000000000000000000 ) ) ;
#14 = DIRECTION ( 'NONE',  ( 0.0000000000000000000, 1.000000000000000000, 0.0000000000000000000 ) ) ;
#15 = PRODUCT_DEFINITION_FORMATION_WITH_SPECIFIED_SOURCE ( 'ANY', '', #25, .NOT_KNOWN. ) ;
#16 = AXIS2_PLACEMENT_3D ( 'NONE', #193, #13, #195 ) ;
#17 = CIRCLE ( 'NONE', #229, 50.79999999999999716 ) ;
#18 = DIRECTION ( 'NONE',  ( 0.0000000000000000000, 0.0000000000000000000, -1.000000000000000000 ) ) ;
#19 = LINE ( 'NONE', #184, #217 ) ;
#20 = ORIENTED_EDGE ( 'NONE', *, *, #104, .F. ) ;
#21 = CC_DESIGN_DATE_AND_TIME_ASSIGNMENT ( #134, #132, ( #92 ) ) ;
#22 = ADVANCED_FACE ( 'NONE', ( #251 ), #143, .T. ) ;
#23 = ORIENTED_EDGE ( 'NONE', *, *, #104, .T. ) ;
#24 = FACE_OUTER_BOUND ( 'NONE', #152, .T. ) ;
#25 = PRODUCT ( 'TTN041009-E0W', 'TTN041009-E0W', '', ( #211 ) ) ;
#26 = COORDINATED_UNIVERSAL_TIME_OFFSET ( 5, 0, .BEHIND. ) ;
#27 = CIRCLE ( 'NONE', #156, 50.54999999999999716 ) ;
#28 = CARTESIAN_POINT ( 'NONE',  ( 0.0000000000000000000, 0.0000000000000000000, 0.0000000000000000000 ) ) ;
#29 = CARTESIAN_POINT ( 'NONE',  ( 0.0000000000000000000, 0.2499999999999863443, -50.79999999999999716 ) ) ;
#30 = EDGE_CURVE ( 'NONE', #66, #58, #19, .T. ) ;
#31 = PERSON_AND_ORGANIZATION ( #214, #135 ) ;
#32 = CC_DESIGN_PERSON_AND_ORGANIZATION_ASSIGNMENT ( #71, #84, ( #25 ) ) ;
#33 = SPHERICAL_SURFACE ( 'NONE', #9, 86.00000000000000000 ) ;
#34 = DIRECTION ( 'NONE',  ( 1.000000000000000000, 0.0000000000000000000, 0.0000000000000000000 ) ) ;
#35 = APPROVAL ( #101, 'UNSPECIFIED' ) ;
#36 = DIRECTION ( 'NONE',  ( 0.0000000000000000000, 0.0000000000000000000, 1.000000000000000000 ) ) ;
#37 = DIRECTION ( 'NONE',  ( 1.000000000000000000, 0.0000000000000000000, 0.0000000000000000000 ) ) ;
#38 = CC_DESIGN_PERSON_AND_ORGANIZATION_ASSIGNMENT ( #80, #147, ( #50 ) ) ;
#39 = FACE_OUTER_BOUND ( 'NONE', #91, .T. ) ;
#40 = CARTESIAN_POINT ( 'NONE',  ( 6.190589569689869943E-15, 0.0000000000000000000, -50.54999999999999716 ) ) ;
#41 = ORIENTED_EDGE ( 'NONE', *, *, #68, .T. ) ;
#42 = LINE ( 'NONE', #40, #94 ) ;
#43 = APPROVAL_PERSON_ORGANIZATION ( #98, #234, #129 ) ;
#44 = CC_DESIGN_PERSON_AND_ORGANIZATION_ASSIGNMENT ( #87, #151, ( #15 ) ) ;
#45 = EDGE_CURVE ( 'NONE', #155, #241, #27, .T. ) ;
#46 = MANIFOLD_SOLID_BREP ( 'TTN035612-1-solid1', #163 ) ;
#47 = VECTOR ( 'NONE', #161, 1000.000000000000000 ) ;
#48 = CC_DESIGN_APPROVAL ( #234, ( #92 ) ) ;
#49 = ORIENTED_EDGE ( 'NONE', *, *, #119, .F. ) ;
#50 = SECURITY_CLASSIFICATION ( '', '', #8 ) ;
#51 = CARTESIAN_POINT ( 'NONE',  ( 0.0000000000000000000, 6.036271302665728200, 0.0000000000000000000 ) ) ;
#52 = CARTESIAN_POINT ( 'NONE',  ( 6.221205739668553730E-15, 0.0000000000000000000, 50.79999999999999716 ) ) ;
#53 = CARTESIAN_POINT ( 'NONE',  ( 0.0000000000000000000, -63.35652371237887337, 0.0000000000000000000 ) ) ;
#54 = ORIENTED_EDGE ( 'NONE', *, *, #30, .F. ) ;
#55 = CARTESIAN_POINT ( 'NONE',  ( 0.0000000000000000000, -63.35652371237887337, 0.0000000000000000000 ) ) ;
#56 = VECTOR ( 'NONE', #57, 1000.000000000000000 ) ;
#57 = DIRECTION ( 'NONE',  ( 0.0000000000000000000, 0.7071067811865279218, 0.7071067811865671127 ) ) ;
#58 = VERTEX_POINT ( 'NONE', #29 ) ;
#59 = APPLICATION_PROTOCOL_DEFINITION ( 'international standard', 'config_control_design', 1994, #169 ) ;
#60 = CARTESIAN_POINT ( 'NONE',  ( 0.0000000000000000000, -63.35652371237887337, 0.0000000000000000000 ) ) ;
#61 = APPLICATION_PROTOCOL_DEFINITION ( 'international standard', 'config_control_design', 1994, #213 ) ;
#62 = APPROVAL ( #222, 'UNSPECIFIED' ) ;
#63 = EDGE_CURVE ( 'NONE', #128, #136, #10, .T. ) ;
#64 = DATE_AND_TIME ( #178, #221 ) ;
#65 = LINE ( 'NONE', #191, #56 ) ;
#66 = VERTEX_POINT ( 'NONE', #205 ) ;
#67 = CC_DESIGN_DATE_AND_TIME_ASSIGNMENT ( #64, #97, ( #50 ) ) ;
#68 = EDGE_CURVE ( 'NONE', #136, #58, #165, .T. ) ;
#69 = DIRECTION ( 'NONE',  ( -0.0000000000000000000, -1.000000000000000000, -0.0000000000000000000 ) ) ;
#70 = ADVANCED_FACE ( 'NONE', ( #39 ), #154, .T. ) ;
#71 = PERSON_AND_ORGANIZATION ( #214, #135 ) ;
#72 = DIRECTION ( 'NONE',  ( 1.000000000000000000, 0.0000000000000000000, -1.224646799147353207E-16 ) ) ;
#73 = AXIS2_PLACEMENT_3D ( 'NONE', #150, #130, #131 ) ;
#74 = LOCAL_TIME ( 9, 5, 14.00000000000000000, #167 ) ;
#75 = DIRECTION ( 'NONE',  ( 0.0000000000000000000, 0.0000000000000000000, -1.000000000000000000 ) ) ;
#76 = DIRECTION ( 'NONE',  ( 0.0000000000000000000, 0.0000000000000000000, -1.000000000000000000 ) ) ;
#77 = ORIENTED_EDGE ( 'NONE', *, *, #112, .T. ) ;
#78 = DIRECTION ( 'NONE',  ( 0.0000000000000000000, -1.000000000000000000, -0.0000000000000000000 ) ) ;
#79 = COORDINATED_UNIVERSAL_TIME_OFFSET ( 5, 0, .BEHIND. ) ;
#80 = PERSON_AND_ORGANIZATION ( #214, #135 ) ;
#81 = ORIENTED_EDGE ( 'NONE', *, *, #112, .F. ) ;
#82 = CARTESIAN_POINT ( 'NONE',  ( 0.0000000000000000000, 0.0000000000000000000, 0.0000000000000000000 ) ) ;
#83 = EDGE_CURVE ( 'NONE', #237, #66, #226, .T. ) ;
#84 = PERSON_AND_ORGANIZATION_ROLE ( 'design_owner' ) ;
#85 = AXIS2_PLACEMENT_3D ( 'NONE', #157, #72, #235 ) ;
#86 = CALENDAR_DATE ( 2019, 16, 7 ) ;
#87 = PERSON_AND_ORGANIZATION ( #214, #135 ) ;
#88 = EDGE_CURVE ( 'NONE', #66, #128, #109, .T. ) ;
#89 = DATE_AND_TIME ( #86, #249 ) ;
#90 = ORIENTED_EDGE ( 'NONE', *, *, #68, .F. ) ;
#91 = EDGE_LOOP ( 'NONE', ( #118, #218, #41, #54 ) ) ;
#92 = PRODUCT_DEFINITION ( 'UNKNOWN', '', #15, #215 ) ;
#93 = CARTESIAN_POINT ( 'NONE',  ( 0.0000000000000000000, 0.2499999999999863443, 0.0000000000000000000 ) ) ;
#94 = VECTOR ( 'NONE', #247, 1000.000000000000000 ) ;
#95 = EDGE_LOOP ( 'NONE', ( #145, #228, #153, #49 ) ) ;
#96 = CALENDAR_DATE ( 2019, 16, 7 ) ;
#97 = DATE_TIME_ROLE ( 'classification_date' ) ;
#98 = PERSON_AND_ORGANIZATION ( #214, #135 ) ;
#99 = CARTESIAN_POINT ( 'NONE',  ( 0.0000000000000000000, 0.2499999999999863443, 0.0000000000000000000 ) ) ;
#100 = ORIENTED_EDGE ( 'NONE', *, *, #88, .F. ) ;
#101 = APPROVAL_STATUS ( 'not_yet_approved' ) ;
#102 = APPROVAL_STATUS ( 'not_yet_approved' ) ;
#103 = PERSON_AND_ORGANIZATION_ROLE ( 'design_supplier' ) ;
#104 = EDGE_CURVE ( 'NONE', #128, #66, #17, .T. ) ;
#105 = CC_DESIGN_SECURITY_CLASSIFICATION ( #50, ( #15 ) ) ;
#106 = EDGE_CURVE ( 'NONE', #241, #155, #197, .T. ) ;
#107 = CC_DESIGN_PERSON_AND_ORGANIZATION_ASSIGNMENT ( #174, #103, ( #15 ) ) ;
#108 = UNCERTAINTY_MEASURE_WITH_UNIT (LENGTH_MEASURE( 1.000000000000000082E-05 ), #243, 'distance_accuracy_value', 'NONE');
#109 = CIRCLE ( 'NONE', #5, 50.79999999999999716 ) ;
#110 = CC_DESIGN_PERSON_AND_ORGANIZATION_ASSIGNMENT ( #120, #224, ( #92 ) ) ;
#111 = DIRECTION ( 'NONE',  ( 0.0000000000000000000, 0.0000000000000000000, -1.000000000000000000 ) ) ;
#112 = EDGE_CURVE ( 'NONE', #237, #128, #187, .T. ) ;
#113 = DIRECTION ( 'NONE',  ( 0.0000000000000000000, 0.0000000000000000000, -1.000000000000000000 ) ) ;
#114 = APPROVAL_ROLE ( '' ) ;
#115 = PERSON_AND_ORGANIZATION ( #214, #135 ) ;
#116 = CARTESIAN_POINT ( 'NONE',  ( 0.0000000000000000000, 0.0000000000000000000, 0.0000000000000000000 ) ) ;
#117 = CARTESIAN_POINT ( 'NONE',  ( 6.205897654679211837E-15, 0.0000000000000000000, -50.54999999999999716 ) ) ;
#118 = ORIENTED_EDGE ( 'NONE', *, *, #88, .T. ) ;
#119 = EDGE_CURVE ( 'NONE', #58, #136, #196, .T. ) ;
#120 = PERSON_AND_ORGANIZATION ( #214, #135 ) ;
#121 = AXIS2_PLACEMENT_3D ( 'NONE', #148, #69, #18 ) ;
#122 = LOCAL_TIME ( 9, 5, 14.00000000000000000, #26 ) ;
#123 = EDGE_LOOP ( 'NONE', ( #233, #198 ) ) ;
#124 = EDGE_CURVE ( 'NONE', #241, #136, #65, .T. ) ;
#125 = ORIENTED_EDGE ( 'NONE', *, *, #133, .T. ) ;
#126 = CARTESIAN_POINT ( 'NONE',  ( 0.0000000000000000000, 0.0000000000000000000, 0.0000000000000000000 ) ) ;
#127 = APPROVAL_DATE_TIME ( #181, #35 ) ;
#128 = VERTEX_POINT ( 'NONE', #170 ) ;
#129 = APPROVAL_ROLE ( '' ) ;
#130 = DIRECTION ( 'NONE',  ( 0.0000000000000000000, 0.0000000000000000000, 1.000000000000000000 ) ) ;
#131 = DIRECTION ( 'NONE',  ( 1.000000000000000000, 0.0000000000000000000, 0.0000000000000000000 ) ) ;
#132 = DATE_TIME_ROLE ( 'creation_date' ) ;
#133 = EDGE_CURVE ( 'NONE', #155, #58, #42, .T. ) ;
#134 = DATE_AND_TIME ( #232, #200 ) ;
#135 = ORGANIZATION ( 'UNSPECIFIED', 'UNSPECIFIED', '' ) ;
#136 = VERTEX_POINT ( 'NONE', #11 ) ;
#137 = AXIS2_PLACEMENT_3D ( 'NONE', #82, #14, #209 ) ;
#138 = SPHERICAL_SURFACE ( 'NONE', #158, 86.00000000000000000 ) ;
#139 = ADVANCED_FACE ( 'NONE', ( #173 ), #33, .T. ) ;
#140 = APPROVAL_PERSON_ORGANIZATION ( #115, #62, #114 ) ;
#141 = DIRECTION ( 'NONE',  ( -0.0000000000000000000, -1.000000000000000000, -0.0000000000000000000 ) ) ;
#142 = ADVANCED_FACE ( 'NONE', ( #207 ), #245, .T. ) ;
#143 = PLANE ( 'NONE',  #242 ) ;
#144 = CARTESIAN_POINT ( 'NONE',  ( 0.0000000000000000000, 6.036271302665728200, 0.0000000000000000000 ) ) ;
#145 = ORIENTED_EDGE ( 'NONE', *, *, #133, .F. ) ;
#146 = AXIS2_PLACEMENT_3D ( 'NONE', #99, #223, #113 ) ;
#147 = PERSON_AND_ORGANIZATION_ROLE ( 'classification_officer' ) ;
#148 = CARTESIAN_POINT ( 'NONE',  ( 0.0000000000000000000, 0.0000000000000000000, 0.0000000000000000000 ) ) ;
#149 = CARTESIAN_POINT ( 'NONE',  ( 0.0000000000000000000, 22.64347628762111597, -5.265981236333618470E-15 ) ) ;
#150 = CARTESIAN_POINT ( 'NONE',  ( 0.0000000000000000000, 0.0000000000000000000, 0.0000000000000000000 ) ) ;
#151 = PERSON_AND_ORGANIZATION_ROLE ( 'creator' ) ;
#152 = EDGE_LOOP ( 'NONE', ( #185, #77, #100 ) ) ;
#153 = ORIENTED_EDGE ( 'NONE', *, *, #124, .T. ) ;
#154 = CYLINDRICAL_SURFACE ( 'NONE', #206, 50.79999999999999716 ) ;
#155 = VERTEX_POINT ( 'NONE', #117 ) ;
#156 = AXIS2_PLACEMENT_3D ( 'NONE', #236, #162, #4 ) ;
#157 = CARTESIAN_POINT ( 'NONE',  ( 0.0000000000000000000, -63.35652371237887337, 0.0000000000000000000 ) ) ;
#158 = AXIS2_PLACEMENT_3D ( 'NONE', #60, #37, #248 ) ;
#159 = DIRECTION ( 'NONE',  ( -1.000000000000000000, 0.0000000000000000000, 0.0000000000000000000 ) ) ;
#160 = DIRECTION ( 'NONE',  ( -0.0000000000000000000, -1.000000000000000000, -0.0000000000000000000 ) ) ;
#161 = DIRECTION ( 'NONE',  ( -0.0000000000000000000, -1.000000000000000000, -0.0000000000000000000 ) ) ;
#162 = DIRECTION ( 'NONE',  ( -0.0000000000000000000, -1.000000000000000000, -0.0000000000000000000 ) ) ;
#163 = CLOSED_SHELL ( 'NONE', ( #199, #179, #70, #22, #177, #139, #142 ) ) ;
#164 =( NAMED_UNIT ( * ) SI_UNIT ( $, .STERADIAN. ) SOLID_ANGLE_UNIT ( ) );
#165 = CIRCLE ( 'NONE', #230, 50.79999999999999716 ) ;
#166 = ORIENTED_EDGE ( 'NONE', *, *, #63, .F. ) ;
#167 = COORDINATED_UNIVERSAL_TIME_OFFSET ( 5, 0, .BEHIND. ) ;
#168 = CARTESIAN_POINT ( 'NONE',  ( 0.0000000000000000000, 0.0000000000000000000, 50.54999999999999716 ) ) ;
#169 = APPLICATION_CONTEXT ( 'configuration controlled 3d designs of mechanical parts and assemblies' ) ;
#170 = CARTESIAN_POINT ( 'NONE',  ( 6.221205739668553730E-15, 6.036271302665728200, 50.79999999999999716 ) ) ;
#171 = ORIENTED_EDGE ( 'NONE', *, *, #124, .F. ) ;
#172 = PRODUCT_RELATED_PRODUCT_CATEGORY ( 'detail', '', ( #25 ) ) ;
#173 = FACE_OUTER_BOUND ( 'NONE', #240, .T. ) ;
#174 = PERSON_AND_ORGANIZATION ( #214, #135 ) ;
#175 = AXIS2_PLACEMENT_3D ( 'NONE', #116, #212, #36 ) ;
#176 = PRODUCT_DEFINITION_SHAPE ( 'NONE', 'NONE',  #92 ) ;
#177 = ADVANCED_FACE ( 'NONE', ( #250 ), #1, .T. ) ;
#178 = CALENDAR_DATE ( 2019, 16, 7 ) ;
#179 = ADVANCED_FACE ( 'NONE', ( #24 ), #138, .T. ) ;
#180 = APPROVAL_PERSON_ORGANIZATION ( #31, #35, #208 ) ;
#181 = DATE_AND_TIME ( #220, #122 ) ;
#182 = EDGE_LOOP ( 'NONE', ( #166, #23, #3, #204 ) ) ;
#183 = DIRECTION ( 'NONE',  ( 0.0000000000000000000, 1.000000000000000000, 0.0000000000000000000 ) ) ;
#184 = CARTESIAN_POINT ( 'NONE',  ( 0.0000000000000000000, 0.0000000000000000000, -50.79999999999999716 ) ) ;
#185 = ORIENTED_EDGE ( 'NONE', *, *, #83, .F. ) ;
#186 = DIRECTION ( 'NONE',  ( -0.0000000000000000000, -1.000000000000000000, -0.0000000000000000000 ) ) ;
#187 = CIRCLE ( 'NONE', #85, 86.00000000000000000 ) ;
#188 = ADVANCED_BREP_SHAPE_REPRESENTATION ( 'TTN041009-E0W', ( #46, #73 ), #216 ) ;
#189 = COORDINATED_UNIVERSAL_TIME_OFFSET ( 5, 0, .BEHIND. ) ;
#190 = SHAPE_DEFINITION_REPRESENTATION ( #176, #188 ) ;
#191 = CARTESIAN_POINT ( 'NONE',  ( 0.0000000000000000000, 0.0000000000000000000, 50.54999999999999716 ) ) ;
#192 = ORIENTED_EDGE ( 'NONE', *, *, #83, .T. ) ;
#193 = CARTESIAN_POINT ( 'NONE',  ( 0.0000000000000000000, 0.0000000000000000000, 0.0000000000000000000 ) ) ;
#194 = CC_DESIGN_APPROVAL ( #62, ( #50 ) ) ;
#195 = DIRECTION ( 'NONE',  ( 0.0000000000000000000, 0.0000000000000000000, -1.000000000000000000 ) ) ;
#196 = CIRCLE ( 'NONE', #146, 50.79999999999999716 ) ;
#197 = CIRCLE ( 'NONE', #121, 50.54999999999999716 ) ;
#198 = ORIENTED_EDGE ( 'NONE', *, *, #45, .T. ) ;
#199 = ADVANCED_FACE ( 'NONE', ( #202 ), #7, .T. ) ;
#200 = LOCAL_TIME ( 9, 5, 14.00000000000000000, #79 ) ;
#201 = EDGE_LOOP ( 'NONE', ( #231, #125, #90, #171 ) ) ;
#202 = FACE_OUTER_BOUND ( 'NONE', #201, .T. ) ;
#203 = DIRECTION ( 'NONE',  ( 0.0000000000000000000, 0.0000000000000000000, -1.000000000000000000 ) ) ;
#204 = ORIENTED_EDGE ( 'NONE', *, *, #119, .T. ) ;
#205 = CARTESIAN_POINT ( 'NONE',  ( 0.0000000000000000000, 6.036271302665728200, -50.79999999999999716 ) ) ;
#206 = AXIS2_PLACEMENT_3D ( 'NONE', #126, #160, #75 ) ;
#207 = FACE_OUTER_BOUND ( 'NONE', #95, .T. ) ;
#208 = APPROVAL_ROLE ( '' ) ;
#209 = DIRECTION ( 'NONE',  ( 0.0000000000000000000, 0.0000000000000000000, 1.000000000000000000 ) ) ;
#210 = APPROVAL_DATE_TIME ( #225, #62 ) ;
#211 = MECHANICAL_CONTEXT ( 'NONE', #169, 'mechanical' ) ;
#212 = DIRECTION ( 'NONE',  ( 0.0000000000000000000, 1.000000000000000000, 0.0000000000000000000 ) ) ;
#213 = APPLICATION_CONTEXT ( 'configuration controlled 3d designs of mechanical parts and assemblies' ) ;
#214 = PERSON ( 'UNSPECIFIED', 'UNSPECIFIED', 'UNSPECIFIED', ('UNSPECIFIED'), ('UNSPECIFIED'), ('UNSPECIFIED') ) ;
#215 = DESIGN_CONTEXT ( 'detailed design', #213, 'design' ) ;
#216 =( GEOMETRIC_REPRESENTATION_CONTEXT ( 3 ) GLOBAL_UNCERTAINTY_ASSIGNED_CONTEXT ( ( #108 ) ) GLOBAL_UNIT_ASSIGNED_CONTEXT ( ( #243, #12, #164 ) ) REPRESENTATION_CONTEXT ( 'NONE', 'WORKASPACE' ) );
#217 = VECTOR ( 'NONE', #141, 1000.000000000000000 ) ;
#218 = ORIENTED_EDGE ( 'NONE', *, *, #63, .T. ) ;
#219 = DIRECTION ( 'NONE',  ( 0.0000000000000000000, 0.0000000000000000000, 1.000000000000000000 ) ) ;
#220 = CALENDAR_DATE ( 2019, 16, 7 ) ;
#221 = LOCAL_TIME ( 9, 5, 14.00000000000000000, #6 ) ;
#222 = APPROVAL_STATUS ( 'not_yet_approved' ) ;
#223 = DIRECTION ( 'NONE',  ( 0.0000000000000000000, 1.000000000000000000, 0.0000000000000000000 ) ) ;
#224 = PERSON_AND_ORGANIZATION_ROLE ( 'creator' ) ;
#225 = DATE_AND_TIME ( #96, #74 ) ;
#226 = CIRCLE ( 'NONE', #246, 86.00000000000000000 ) ;
#227 = APPROVAL_DATE_TIME ( #89, #234 ) ;
#228 = ORIENTED_EDGE ( 'NONE', *, *, #106, .F. ) ;
#229 = AXIS2_PLACEMENT_3D ( 'NONE', #144, #2, #203 ) ;
#230 = AXIS2_PLACEMENT_3D ( 'NONE', #93, #183, #238 ) ;
#231 = ORIENTED_EDGE ( 'NONE', *, *, #45, .F. ) ;
#232 = CALENDAR_DATE ( 2019, 16, 7 ) ;
#233 = ORIENTED_EDGE ( 'NONE', *, *, #106, .T. ) ;
#234 = APPROVAL ( #102, 'UNSPECIFIED' ) ;
#235 = DIRECTION ( 'NONE',  ( -1.224646799147353207E-16, 0.0000000000000000000, -1.000000000000000000 ) ) ;
#236 = CARTESIAN_POINT ( 'NONE',  ( 0.0000000000000000000, 0.0000000000000000000, 0.0000000000000000000 ) ) ;
#237 = VERTEX_POINT ( 'NONE', #149 ) ;
#238 = DIRECTION ( 'NONE',  ( 0.0000000000000000000, 0.0000000000000000000, -1.000000000000000000 ) ) ;
#239 = CC_DESIGN_APPROVAL ( #35, ( #15 ) ) ;
#240 = EDGE_LOOP ( 'NONE', ( #81, #192, #20 ) ) ;
#241 = VERTEX_POINT ( 'NONE', #168 ) ;
#242 = AXIS2_PLACEMENT_3D ( 'NONE', #28, #78, #111 ) ;
#243 =( LENGTH_UNIT ( ) NAMED_UNIT ( * ) SI_UNIT ( .MILLI., .METRE. ) );
#244 = DIRECTION ( 'NONE',  ( 0.0000000000000000000, 0.0000000000000000000, -1.000000000000000000 ) ) ;
#245 = CONICAL_SURFACE ( 'NONE', #137, 50.54999999999999716, 0.7853981633974760346 ) ;
#246 = AXIS2_PLACEMENT_3D ( 'NONE', #53, #159, #219 ) ;
#247 = DIRECTION ( 'NONE',  ( 8.659560562355173214E-17, 0.7071067811865279218, -0.7071067811865671127 ) ) ;
#248 = DIRECTION ( 'NONE',  ( 0.0000000000000000000, 0.0000000000000000000, -1.000000000000000000 ) ) ;
#249 = LOCAL_TIME ( 9, 5, 14.00000000000000000, #189 ) ;
#250 = FACE_OUTER_BOUND ( 'NONE', #182, .T. ) ;
#251 = FACE_OUTER_BOUND ( 'NONE', #123, .T. ) ;
ENDSEC;
END-ISO-10303-21;
