ISO-10303-21;
HEADER;
FILE_DESCRIPTION (( 'STEP AP203' ),
    '1' );
FILE_NAME ('Web Model 12314_12314.step',
    '2019-01-23T21:00:52',
    ( '' ),
    ( '' ),
    'SwSTEP 2.0',
    'SolidWorks 2016',
    '' );
FILE_SCHEMA (( 'CONFIG_CONTROL_DESIGN' ));
ENDSEC;

DATA;
#1 = LINE ( 'NONE', #89, #203 ) ;
#2 = UNCERTAINTY_MEASURE_WITH_UNIT (LENGTH_MEASURE( 1.000000000000000100E-005 ), #197, 'distance_accuracy_value', 'NONE');
#3 = PRODUCT_DEFINITION_FORMATION_WITH_SPECIFIED_SOURCE ( 'ANY', '', #17, .NOT_KNOWN. ) ;
#4 = EDGE_LOOP ( 'NONE', ( #79, #142, #128, #186 ) ) ;
#5 = APPROVAL ( #40, 'UNSPECIFIED' ) ;
#6 = VERTEX_POINT ( 'NONE', #226 ) ;
#7 = AXIS2_PLACEMENT_3D ( 'NONE', #131, #9, #35 ) ;
#8 = FACE_OUTER_BOUND ( 'NONE', #4, .T. ) ;
#9 = DIRECTION ( 'NONE',  ( 0.0000000000000000000, 0.0000000000000000000, -1.000000000000000000 ) ) ;
#10 = CARTESIAN_POINT ( 'NONE',  ( -25.39999999999999900, -12.70000000000000100, -0.05000000000000000300 ) ) ;
#11 = ORIENTED_EDGE ( 'NONE', *, *, #75, .T. ) ;
#12 = PLANE ( 'NONE',  #7 ) ;
#13 = CC_DESIGN_PERSON_AND_ORGANIZATION_ASSIGNMENT ( #156, #73, ( #81 ) ) ;
#14 = CARTESIAN_POINT ( 'NONE',  ( -25.39999999999999900, 12.69999999999999800, 0.05000000000000000300 ) ) ;
#15 = VECTOR ( 'NONE', #23, 1000.000000000000000 ) ;
#16 = VERTEX_POINT ( 'NONE', #118 ) ;
#17 = PRODUCT ( 'Web Model 12314_12314', 'Web Model 12314_12314', '', ( #158 ) ) ;
#18 = CALENDAR_DATE ( 2019, 23, 1 ) ;
#19 = LOCAL_TIME ( 16, 0, 52.00000000000000000, #214 ) ;
#20 = DIRECTION ( 'NONE',  ( 1.000000000000000000, 0.0000000000000000000, 0.0000000000000000000 ) ) ;
#21 = AXIS2_PLACEMENT_3D ( 'NONE', #14, #150, #100 ) ;
#22 = APPLICATION_PROTOCOL_DEFINITION ( 'international standard', 'config_control_design', 1994, #109 ) ;
#23 = DIRECTION ( 'NONE',  ( -0.0000000000000000000, -1.000000000000000000, -0.0000000000000000000 ) ) ;
#24 = VECTOR ( 'NONE', #192, 1000.000000000000000 ) ;
#25 =( GEOMETRIC_REPRESENTATION_CONTEXT ( 3 ) GLOBAL_UNCERTAINTY_ASSIGNED_CONTEXT ( ( #2 ) ) GLOBAL_UNIT_ASSIGNED_CONTEXT ( ( #197, #217, #71 ) ) REPRESENTATION_CONTEXT ( 'NONE', 'WORKASPACE' ) );
#26 = ORIENTED_EDGE ( 'NONE', *, *, #104, .F. ) ;
#27 = PRODUCT_DEFINITION_SHAPE ( 'NONE', 'NONE',  #174 ) ;
#28 = LINE ( 'NONE', #193, #24 ) ;
#29 = ORIENTED_EDGE ( 'NONE', *, *, #83, .F. ) ;
#30 = CARTESIAN_POINT ( 'NONE',  ( -25.39999999999999900, 12.69999999999999800, 0.05000000000000000300 ) ) ;
#31 = DATE_AND_TIME ( #90, #126 ) ;
#32 = ORIENTED_EDGE ( 'NONE', *, *, #42, .F. ) ;
#33 = CC_DESIGN_DATE_AND_TIME_ASSIGNMENT ( #143, #201, ( #81 ) ) ;
#34 = DIRECTION ( 'NONE',  ( -0.0000000000000000000, -0.0000000000000000000, -1.000000000000000000 ) ) ;
#35 = DIRECTION ( 'NONE',  ( -1.000000000000000000, 0.0000000000000000000, -0.0000000000000000000 ) ) ;
#36 = DIRECTION ( 'NONE',  ( -1.000000000000000000, 0.0000000000000000000, -0.0000000000000000000 ) ) ;
#37 = AXIS2_PLACEMENT_3D ( 'NONE', #141, #86, #219 ) ;
#38 = DATE_TIME_ROLE ( 'creation_date' ) ;
#39 = CARTESIAN_POINT ( 'NONE',  ( -25.39999999999999900, -12.70000000000000100, 0.05000000000000000300 ) ) ;
#40 = APPROVAL_STATUS ( 'not_yet_approved' ) ;
#41 = ADVANCED_FACE ( 'NONE', ( #170 ), #173, .F. ) ;
#42 = EDGE_CURVE ( 'NONE', #108, #16, #28, .T. ) ;
#43 = CALENDAR_DATE ( 2019, 23, 1 ) ;
#44 = DIRECTION ( 'NONE',  ( -1.000000000000000000, -0.0000000000000000000, -0.0000000000000000000 ) ) ;
#45 = DIRECTION ( 'NONE',  ( 0.0000000000000000000, 1.000000000000000000, 0.0000000000000000000 ) ) ;
#46 = CARTESIAN_POINT ( 'NONE',  ( 25.39999999999999900, -12.70000000000000100, 0.05000000000000000300 ) ) ;
#47 = VECTOR ( 'NONE', #133, 1000.000000000000000 ) ;
#48 = APPROVAL ( #110, 'UNSPECIFIED' ) ;
#49 = DIRECTION ( 'NONE',  ( -0.0000000000000000000, -0.0000000000000000000, -1.000000000000000000 ) ) ;
#50 = PERSON_AND_ORGANIZATION ( #134, #130 ) ;
#51 = VERTEX_POINT ( 'NONE', #117 ) ;
#52 = ADVANCED_FACE ( 'NONE', ( #164 ), #228, .T. ) ;
#53 = APPROVAL_ROLE ( '' ) ;
#54 = APPROVAL_STATUS ( 'not_yet_approved' ) ;
#55 = AXIS2_PLACEMENT_3D ( 'NONE', #236, #20, #139 ) ;
#56 = CARTESIAN_POINT ( 'NONE',  ( -25.39999999999999900, -12.70000000000000100, 0.05000000000000000300 ) ) ;
#57 = MANIFOLD_SOLID_BREP ( 'Boss-Extrude1', #204 ) ;
#58 = EDGE_LOOP ( 'NONE', ( #11, #29, #32, #69 ) ) ;
#59 = APPROVAL_DATE_TIME ( #107, #48 ) ;
#60 = ORIENTED_EDGE ( 'NONE', *, *, #223, .F. ) ;
#61 = LINE ( 'NONE', #46, #96 ) ;
#62 = EDGE_LOOP ( 'NONE', ( #85, #163, #213, #111 ) ) ;
#63 = ADVANCED_BREP_SHAPE_REPRESENTATION ( 'Web Model 12314_12314', ( #57, #37 ), #25 ) ;
#64 = PERSON_AND_ORGANIZATION ( #134, #130 ) ;
#65 = APPROVAL_DATE_TIME ( #112, #5 ) ;
#66 = CARTESIAN_POINT ( 'NONE',  ( 25.39999999999999900, -12.70000000000000100, -0.05000000000000000300 ) ) ;
#67 = CARTESIAN_POINT ( 'NONE',  ( -25.39999999999999900, -12.70000000000000100, 0.05000000000000000300 ) ) ;
#68 = COORDINATED_UNIVERSAL_TIME_OFFSET ( 5, 0, .BEHIND. ) ;
#69 = ORIENTED_EDGE ( 'NONE', *, *, #227, .T. ) ;
#70 = DIRECTION ( 'NONE',  ( -0.0000000000000000000, -1.000000000000000000, -0.0000000000000000000 ) ) ;
#71 =( NAMED_UNIT ( * ) SI_UNIT ( $, .STERADIAN. ) SOLID_ANGLE_UNIT ( ) );
#72 = DIRECTION ( 'NONE',  ( 0.0000000000000000000, 1.000000000000000000, 0.0000000000000000000 ) ) ;
#73 = PERSON_AND_ORGANIZATION_ROLE ( 'classification_officer' ) ;
#74 = PERSON_AND_ORGANIZATION ( #134, #130 ) ;
#75 = EDGE_CURVE ( 'NONE', #196, #95, #94, .T. ) ;
#76 = PERSON_AND_ORGANIZATION ( #134, #130 ) ;
#77 = CALENDAR_DATE ( 2019, 23, 1 ) ;
#78 = SHAPE_DEFINITION_REPRESENTATION ( #27, #63 ) ;
#79 = ORIENTED_EDGE ( 'NONE', *, *, #113, .T. ) ;
#80 = CARTESIAN_POINT ( 'NONE',  ( 25.39999999999999900, 12.69999999999999800, 0.05000000000000000300 ) ) ;
#81 = SECURITY_CLASSIFICATION ( '', '', #154 ) ;
#82 = VECTOR ( 'NONE', #91, 1000.000000000000000 ) ;
#83 = EDGE_CURVE ( 'NONE', #16, #95, #194, .T. ) ;
#84 = COORDINATED_UNIVERSAL_TIME_OFFSET ( 5, 0, .BEHIND. ) ;
#85 = ORIENTED_EDGE ( 'NONE', *, *, #220, .T. ) ;
#86 = DIRECTION ( 'NONE',  ( 0.0000000000000000000, 0.0000000000000000000, 1.000000000000000000 ) ) ;
#87 = CARTESIAN_POINT ( 'NONE',  ( 25.39999999999999900, 12.69999999999999800, 0.05000000000000000300 ) ) ;
#88 = CC_DESIGN_PERSON_AND_ORGANIZATION_ASSIGNMENT ( #182, #181, ( #3 ) ) ;
#89 = CARTESIAN_POINT ( 'NONE',  ( 25.39999999999999900, -12.70000000000000100, 0.05000000000000000300 ) ) ;
#90 = CALENDAR_DATE ( 2019, 23, 1 ) ;
#91 = DIRECTION ( 'NONE',  ( -0.0000000000000000000, -0.0000000000000000000, -1.000000000000000000 ) ) ;
#92 = PERSON_AND_ORGANIZATION_ROLE ( 'design_owner' ) ;
#93 = ADVANCED_FACE ( 'NONE', ( #103 ), #12, .F. ) ;
#94 = LINE ( 'NONE', #102, #146 ) ;
#95 = VERTEX_POINT ( 'NONE', #99 ) ;
#96 = VECTOR ( 'NONE', #34, 1000.000000000000000 ) ;
#97 = FACE_OUTER_BOUND ( 'NONE', #115, .T. ) ;
#98 = ORIENTED_EDGE ( 'NONE', *, *, #195, .F. ) ;
#99 = CARTESIAN_POINT ( 'NONE',  ( -25.39999999999999900, 12.69999999999999800, -0.05000000000000000300 ) ) ;
#100 = DIRECTION ( 'NONE',  ( 0.0000000000000000000, -0.0000000000000000000, -1.000000000000000000 ) ) ;
#101 = ORIENTED_EDGE ( 'NONE', *, *, #75, .F. ) ;
#102 = CARTESIAN_POINT ( 'NONE',  ( -25.39999999999999900, 12.69999999999999800, -0.05000000000000000300 ) ) ;
#103 = FACE_OUTER_BOUND ( 'NONE', #62, .T. ) ;
#104 = EDGE_CURVE ( 'NONE', #222, #6, #221, .T. ) ;
#105 = APPROVAL_ROLE ( '' ) ;
#106 = CARTESIAN_POINT ( 'NONE',  ( 25.39999999999999900, 12.69999999999999800, -0.05000000000000000300 ) ) ;
#107 = DATE_AND_TIME ( #18, #122 ) ;
#108 = VERTEX_POINT ( 'NONE', #80 ) ;
#109 = APPLICATION_CONTEXT ( 'configuration controlled 3d designs of mechanical parts and assemblies' ) ;
#110 = APPROVAL_STATUS ( 'not_yet_approved' ) ;
#111 = ORIENTED_EDGE ( 'NONE', *, *, #190, .T. ) ;
#112 = DATE_AND_TIME ( #114, #162 ) ;
#113 = EDGE_CURVE ( 'NONE', #157, #196, #185, .T. ) ;
#114 = CALENDAR_DATE ( 2019, 23, 1 ) ;
#115 = EDGE_LOOP ( 'NONE', ( #136, #225, #144, #207 ) ) ;
#116 = CC_DESIGN_APPROVAL ( #48, ( #81 ) ) ;
#117 = CARTESIAN_POINT ( 'NONE',  ( 25.39999999999999900, -12.70000000000000100, 0.05000000000000000300 ) ) ;
#118 = CARTESIAN_POINT ( 'NONE',  ( -25.39999999999999900, 12.69999999999999800, 0.05000000000000000300 ) ) ;
#119 = PLANE ( 'NONE',  #127 ) ;
#120 = DATE_AND_TIME ( #43, #140 ) ;
#121 = EDGE_LOOP ( 'NONE', ( #177, #26, #60, #199 ) ) ;
#122 = LOCAL_TIME ( 16, 0, 52.00000000000000000, #205 ) ;
#123 = PLANE ( 'NONE',  #55 ) ;
#124 = PRODUCT_RELATED_PRODUCT_CATEGORY ( 'detail', '', ( #17 ) ) ;
#125 = EDGE_CURVE ( 'NONE', #6, #157, #206, .T. ) ;
#126 = LOCAL_TIME ( 16, 0, 52.00000000000000000, #84 ) ;
#127 = AXIS2_PLACEMENT_3D ( 'NONE', #229, #172, #189 ) ;
#128 = ORIENTED_EDGE ( 'NONE', *, *, #220, .F. ) ;
#129 = LINE ( 'NONE', #67, #183 ) ;
#130 = ORGANIZATION ( 'UNSPECIFIED', 'UNSPECIFIED', '' ) ;
#131 = CARTESIAN_POINT ( 'NONE',  ( 0.0000000000000000000, 0.0000000000000000000, 0.05000000000000000300 ) ) ;
#132 = LINE ( 'NONE', #87, #82 ) ;
#133 = DIRECTION ( 'NONE',  ( 1.000000000000000000, 0.0000000000000000000, 0.0000000000000000000 ) ) ;
#134 = PERSON ( 'UNSPECIFIED', 'UNSPECIFIED', 'UNSPECIFIED', ('UNSPECIFIED'), ('UNSPECIFIED'), ('UNSPECIFIED') ) ;
#135 = FACE_OUTER_BOUND ( 'NONE', #121, .T. ) ;
#136 = ORIENTED_EDGE ( 'NONE', *, *, #125, .T. ) ;
#137 = APPROVAL ( #54, 'UNSPECIFIED' ) ;
#138 = APPLICATION_PROTOCOL_DEFINITION ( 'international standard', 'config_control_design', 1994, #211 ) ;
#139 = DIRECTION ( 'NONE',  ( 0.0000000000000000000, 0.0000000000000000000, -1.000000000000000000 ) ) ;
#140 = LOCAL_TIME ( 16, 0, 52.00000000000000000, #68 ) ;
#141 = CARTESIAN_POINT ( 'NONE',  ( 0.0000000000000000000, 0.0000000000000000000, 0.0000000000000000000 ) ) ;
#142 = ORIENTED_EDGE ( 'NONE', *, *, #227, .F. ) ;
#143 = DATE_AND_TIME ( #77, #19 ) ;
#144 = ORIENTED_EDGE ( 'NONE', *, *, #190, .F. ) ;
#145 = EDGE_CURVE ( 'NONE', #51, #157, #61, .T. ) ;
#146 = VECTOR ( 'NONE', #44, 1000.000000000000000 ) ;
#147 = EDGE_LOOP ( 'NONE', ( #168, #232, #98, #101 ) ) ;
#148 = CARTESIAN_POINT ( 'NONE',  ( 25.39999999999999900, -12.70000000000000100, -0.05000000000000000300 ) ) ;
#149 = DIRECTION ( 'NONE',  ( -0.0000000000000000000, -0.0000000000000000000, -1.000000000000000000 ) ) ;
#150 = DIRECTION ( 'NONE',  ( 0.0000000000000000000, -1.000000000000000000, 0.0000000000000000000 ) ) ;
#151 = CC_DESIGN_APPROVAL ( #5, ( #3 ) ) ;
#152 = CARTESIAN_POINT ( 'NONE',  ( -25.39999999999999900, -12.70000000000000100, 0.05000000000000000300 ) ) ;
#153 = LINE ( 'NONE', #155, #15 ) ;
#154 = SECURITY_CLASSIFICATION_LEVEL ( 'unclassified' ) ;
#155 = CARTESIAN_POINT ( 'NONE',  ( -25.39999999999999900, -12.70000000000000100, -0.05000000000000000300 ) ) ;
#156 = PERSON_AND_ORGANIZATION ( #134, #130 ) ;
#157 = VERTEX_POINT ( 'NONE', #66 ) ;
#158 = MECHANICAL_CONTEXT ( 'NONE', #211, 'mechanical' ) ;
#159 = CC_DESIGN_SECURITY_CLASSIFICATION ( #81, ( #3 ) ) ;
#160 = CC_DESIGN_PERSON_AND_ORGANIZATION_ASSIGNMENT ( #76, #92, ( #17 ) ) ;
#161 = PERSON_AND_ORGANIZATION_ROLE ( 'creator' ) ;
#162 = LOCAL_TIME ( 16, 0, 52.00000000000000000, #210 ) ;
#163 = ORIENTED_EDGE ( 'NONE', *, *, #42, .T. ) ;
#164 = FACE_OUTER_BOUND ( 'NONE', #147, .T. ) ;
#165 = PERSON_AND_ORGANIZATION ( #134, #130 ) ;
#166 = AXIS2_PLACEMENT_3D ( 'NONE', #233, #72, #215 ) ;
#167 = PERSON_AND_ORGANIZATION ( #134, #130 ) ;
#168 = ORIENTED_EDGE ( 'NONE', *, *, #113, .F. ) ;
#169 = LINE ( 'NONE', #39, #176 ) ;
#170 = FACE_OUTER_BOUND ( 'NONE', #58, .T. ) ;
#171 = APPROVAL_PERSON_ORGANIZATION ( #165, #48, #53 ) ;
#172 = DIRECTION ( 'NONE',  ( -1.000000000000000000, 0.0000000000000000000, 0.0000000000000000000 ) ) ;
#173 = PLANE ( 'NONE',  #21 ) ;
#174 = PRODUCT_DEFINITION ( 'UNKNOWN', '', #3, #175 ) ;
#175 = DESIGN_CONTEXT ( 'detailed design', #109, 'design' ) ;
#176 = VECTOR ( 'NONE', #70, 1000.000000000000000 ) ;
#177 = ORIENTED_EDGE ( 'NONE', *, *, #195, .T. ) ;
#178 = ADVANCED_FACE ( 'NONE', ( #8 ), #119, .F. ) ;
#179 = APPROVAL_ROLE ( '' ) ;
#180 = APPROVAL_PERSON_ORGANIZATION ( #74, #5, #179 ) ;
#181 = PERSON_AND_ORGANIZATION_ROLE ( 'design_supplier' ) ;
#182 = PERSON_AND_ORGANIZATION ( #134, #130 ) ;
#183 = VECTOR ( 'NONE', #187, 1000.000000000000000 ) ;
#184 = CC_DESIGN_PERSON_AND_ORGANIZATION_ASSIGNMENT ( #167, #218, ( #174 ) ) ;
#185 = LINE ( 'NONE', #148, #230 ) ;
#186 = ORIENTED_EDGE ( 'NONE', *, *, #145, .T. ) ;
#187 = DIRECTION ( 'NONE',  ( 1.000000000000000000, 0.0000000000000000000, 0.0000000000000000000 ) ) ;
#188 = CC_DESIGN_APPROVAL ( #137, ( #174 ) ) ;
#189 = DIRECTION ( 'NONE',  ( 0.0000000000000000000, 0.0000000000000000000, 1.000000000000000000 ) ) ;
#190 = EDGE_CURVE ( 'NONE', #222, #51, #129, .T. ) ;
#191 = APPROVAL_DATE_TIME ( #31, #137 ) ;
#192 = DIRECTION ( 'NONE',  ( -1.000000000000000000, -0.0000000000000000000, -0.0000000000000000000 ) ) ;
#193 = CARTESIAN_POINT ( 'NONE',  ( -25.39999999999999900, 12.69999999999999800, 0.05000000000000000300 ) ) ;
#194 = LINE ( 'NONE', #30, #212 ) ;
#195 = EDGE_CURVE ( 'NONE', #95, #6, #153, .T. ) ;
#196 = VERTEX_POINT ( 'NONE', #106 ) ;
#197 =( LENGTH_UNIT ( ) NAMED_UNIT ( * ) SI_UNIT ( .MILLI., .METRE. ) );
#198 = DIRECTION ( 'NONE',  ( 0.0000000000000000000, 1.000000000000000000, 0.0000000000000000000 ) ) ;
#199 = ORIENTED_EDGE ( 'NONE', *, *, #83, .T. ) ;
#200 = CC_DESIGN_DATE_AND_TIME_ASSIGNMENT ( #120, #38, ( #174 ) ) ;
#201 = DATE_TIME_ROLE ( 'classification_date' ) ;
#202 = ADVANCED_FACE ( 'NONE', ( #97 ), #235, .F. ) ;
#203 = VECTOR ( 'NONE', #198, 1000.000000000000000 ) ;
#204 = CLOSED_SHELL ( 'NONE', ( #178, #41, #234, #202, #93, #52 ) ) ;
#205 = COORDINATED_UNIVERSAL_TIME_OFFSET ( 5, 0, .BEHIND. ) ;
#206 = LINE ( 'NONE', #10, #47 ) ;
#207 = ORIENTED_EDGE ( 'NONE', *, *, #104, .T. ) ;
#208 = CARTESIAN_POINT ( 'NONE',  ( 0.0000000000000000000, 0.0000000000000000000, -0.05000000000000000300 ) ) ;
#209 = DIRECTION ( 'NONE',  ( 0.0000000000000000000, 0.0000000000000000000, -1.000000000000000000 ) ) ;
#210 = COORDINATED_UNIVERSAL_TIME_OFFSET ( 5, 0, .BEHIND. ) ;
#211 = APPLICATION_CONTEXT ( 'configuration controlled 3d designs of mechanical parts and assemblies' ) ;
#212 = VECTOR ( 'NONE', #49, 1000.000000000000000 ) ;
#213 = ORIENTED_EDGE ( 'NONE', *, *, #223, .T. ) ;
#214 = COORDINATED_UNIVERSAL_TIME_OFFSET ( 5, 0, .BEHIND. ) ;
#215 = DIRECTION ( 'NONE',  ( 0.0000000000000000000, -0.0000000000000000000, 1.000000000000000000 ) ) ;
#216 = AXIS2_PLACEMENT_3D ( 'NONE', #208, #209, #36 ) ;
#217 =( NAMED_UNIT ( * ) PLANE_ANGLE_UNIT ( ) SI_UNIT ( $, .RADIAN. ) );
#218 = PERSON_AND_ORGANIZATION_ROLE ( 'creator' ) ;
#219 = DIRECTION ( 'NONE',  ( 1.000000000000000000, 0.0000000000000000000, 0.0000000000000000000 ) ) ;
#220 = EDGE_CURVE ( 'NONE', #51, #108, #1, .T. ) ;
#221 = LINE ( 'NONE', #152, #224 ) ;
#222 = VERTEX_POINT ( 'NONE', #56 ) ;
#223 = EDGE_CURVE ( 'NONE', #16, #222, #169, .T. ) ;
#224 = VECTOR ( 'NONE', #149, 1000.000000000000000 ) ;
#225 = ORIENTED_EDGE ( 'NONE', *, *, #145, .F. ) ;
#226 = CARTESIAN_POINT ( 'NONE',  ( -25.39999999999999900, -12.70000000000000100, -0.05000000000000000300 ) ) ;
#227 = EDGE_CURVE ( 'NONE', #108, #196, #132, .T. ) ;
#228 = PLANE ( 'NONE',  #216 ) ;
#229 = CARTESIAN_POINT ( 'NONE',  ( 25.39999999999999900, -12.70000000000000100, 0.05000000000000000300 ) ) ;
#230 = VECTOR ( 'NONE', #45, 1000.000000000000000 ) ;
#231 = APPROVAL_PERSON_ORGANIZATION ( #50, #137, #105 ) ;
#232 = ORIENTED_EDGE ( 'NONE', *, *, #125, .F. ) ;
#233 = CARTESIAN_POINT ( 'NONE',  ( -25.39999999999999900, -12.70000000000000100, 0.05000000000000000300 ) ) ;
#234 = ADVANCED_FACE ( 'NONE', ( #135 ), #123, .F. ) ;
#235 = PLANE ( 'NONE',  #166 ) ;
#236 = CARTESIAN_POINT ( 'NONE',  ( -25.39999999999999900, -12.70000000000000100, 0.05000000000000000300 ) ) ;
#237 = CC_DESIGN_PERSON_AND_ORGANIZATION_ASSIGNMENT ( #64, #161, ( #3 ) ) ;
ENDSEC;
END-ISO-10303-21;
