ISO-10303-21;
HEADER;
FILE_DESCRIPTION (( 'STEP AP203' ),
    '1' );
FILE_NAME ('20180-E0W.STEP',
    '2018-06-01T18:09:30',
    ( 'admin' ),
    ( '' ),
    'SwSTEP 2.0',
    'SolidWorks 2016',
    '' );
FILE_SCHEMA (( 'CONFIG_CONTROL_DESIGN' ));
ENDSEC;

DATA;
#1 = LINE ( 'NONE', #103, #275 ) ;
#2 = VERTEX_POINT ( 'NONE', #223 ) ;
#3 = DIRECTION ( 'NONE',  ( 0.0000000000000000000, -0.6967819573173832400, 0.7172830013021055400 ) ) ;
#4 = CARTESIAN_POINT ( 'NONE',  ( 0.0000000000000000000, 0.4999999999999999400, 0.08036458335226431800 ) ) ;
#5 = APPROVAL_PERSON_ORGANIZATION ( #207, #83, #64 ) ;
#6 = CARTESIAN_POINT ( 'NONE',  ( 0.0000000000000000000, -2.703570448378176300E-018, 0.08593235328286703800 ) ) ;
#7 = DIRECTION ( 'NONE',  ( 0.0000000000000000000, 0.0000000000000000000, 1.000000000000000000 ) ) ;
#8 = CLOSED_SHELL ( 'NONE', ( #155, #26, #239, #217, #188, #187, #37, #311, #276, #33 ) ) ;
#9 = DIRECTION ( 'NONE',  ( -0.0000000000000000000, -1.836909530733566100E-016, 1.000000000000000000 ) ) ;
#10 = DIRECTION ( 'NONE',  ( 0.0000000000000000000, 1.000000000000000000, 1.314613941847900700E-016 ) ) ;
#11 = APPROVAL_DATE_TIME ( #122, #269 ) ;
#12 = CARTESIAN_POINT ( 'NONE',  ( 6.123233995736764800E-017, 0.4999999999999999400, 0.07121431516969717300 ) ) ;
#13 = PRODUCT_DEFINITION_FORMATION_WITH_SPECIFIED_SOURCE ( 'ANY', '', #27, .NOT_KNOWN. ) ;
#14 =( NAMED_UNIT ( * ) PLANE_ANGLE_UNIT ( ) SI_UNIT ( $, .RADIAN. ) );
#15 = EDGE_LOOP ( 'NONE', ( #96, #248, #147, #315 ) ) ;
#16 = CARTESIAN_POINT ( 'NONE',  ( 0.0000000000000000000, 2.112097697910158100E-015, -0.08626599979093296800 ) ) ;
#17 = EDGE_CURVE ( 'NONE', #255, #235, #208, .T. ) ;
#18 = CALENDAR_DATE ( 2018, 1, 6 ) ;
#19 = EDGE_LOOP ( 'NONE', ( #265, #210, #157 ) ) ;
#20 = DIRECTION ( 'NONE',  ( 0.0000000000000000000, -1.000000000000000000, -1.726631975225925000E-016 ) ) ;
#21 = DIRECTION ( 'NONE',  ( 0.0000000000000000000, -1.000000000000000000, -1.726631975225925000E-016 ) ) ;
#22 = SPHERICAL_SURFACE ( 'NONE', #94, 8.312244094488189500 ) ;
#23 = ORIENTED_EDGE ( 'NONE', *, *, #139, .F. ) ;
#24 = LOCAL_TIME ( 14, 9, 30.00000000000000000, #90 ) ;
#25 = ADVANCED_BREP_SHAPE_REPRESENTATION ( '20180-E0W', ( #44, #302 ), #36 ) ;
#26 = ADVANCED_FACE ( 'NONE', ( #85 ), #266, .T. ) ;
#27 = PRODUCT ( '20180-E0W', '20180-E0W', '', ( #69 ) ) ;
#28 = SECURITY_CLASSIFICATION_LEVEL ( 'unclassified' ) ;
#29 = ORIENTED_EDGE ( 'NONE', *, *, #159, .F. ) ;
#30 = FACE_OUTER_BOUND ( 'NONE', #294, .T. ) ;
#31 = CC_DESIGN_APPROVAL ( #83, ( #299 ) ) ;
#32 = VERTEX_POINT ( 'NONE', #205 ) ;
#33 = ADVANCED_FACE ( 'NONE', ( #34 ), #160, .T. ) ;
#34 = FACE_OUTER_BOUND ( 'NONE', #15, .T. ) ;
#35 = VERTEX_POINT ( 'NONE', #316 ) ;
#36 =( GEOMETRIC_REPRESENTATION_CONTEXT ( 3 ) GLOBAL_UNCERTAINTY_ASSIGNED_CONTEXT ( ( #219 ) ) GLOBAL_UNIT_ASSIGNED_CONTEXT ( ( #61, #14, #300 ) ) REPRESENTATION_CONTEXT ( 'NONE', 'WORKASPACE' ) );
#37 = ADVANCED_FACE ( 'NONE', ( #149 ), #118, .T. ) ;
#38 = DIRECTION ( 'NONE',  ( -0.0000000000000000000, -1.836909530733566100E-016, 1.000000000000000000 ) ) ;
#39 = ORIENTED_EDGE ( 'NONE', *, *, #201, .T. ) ;
#40 = EDGE_LOOP ( 'NONE', ( #222, #52, #229, #277 ) ) ;
#41 = CIRCLE ( 'NONE', #138, 17.24744094488188800 ) ;
#42 = CARTESIAN_POINT ( 'NONE',  ( 6.123233995736764800E-017, 0.4999999999999999400, 0.08036458335226431800 ) ) ;
#43 = EDGE_CURVE ( 'NONE', #199, #100, #180, .T. ) ;
#44 = MANIFOLD_SOLID_BREP ( '20180-001-1-solid1', #8 ) ;
#45 = PERSON_AND_ORGANIZATION_ROLE ( 'design_owner' ) ;
#46 = CC_DESIGN_SECURITY_CLASSIFICATION ( #299, ( #13 ) ) ;
#47 = CYLINDRICAL_SURFACE ( 'NONE', #196, 0.4999999999999999400 ) ;
#48 = AXIS2_PLACEMENT_3D ( 'NONE', #284, #288, #247 ) ;
#49 = ORIENTED_EDGE ( 'NONE', *, *, #303, .F. ) ;
#50 = DIRECTION ( 'NONE',  ( 0.0000000000000000000, 0.7071067811865431300, -0.7071067811865516800 ) ) ;
#51 = APPROVAL ( #125, 'UNSPECIFIED' ) ;
#52 = ORIENTED_EDGE ( 'NONE', *, *, #63, .F. ) ;
#53 = DIRECTION ( 'NONE',  ( 0.0000000000000000000, -1.000000000000000000, -1.878145495644181100E-016 ) ) ;
#54 = ORIENTED_EDGE ( 'NONE', *, *, #237, .T. ) ;
#55 = APPROVAL_PERSON_ORGANIZATION ( #246, #269, #129 ) ;
#56 = CALENDAR_DATE ( 2018, 1, 6 ) ;
#57 = PERSON_AND_ORGANIZATION_ROLE ( 'classification_officer' ) ;
#58 = DIRECTION ( 'NONE',  ( -1.224646799147353500E-016, -1.000000000000000000, 0.0000000000000000000 ) ) ;
#59 = EDGE_LOOP ( 'NONE', ( #29, #62, #49, #189 ) ) ;
#60 = CARTESIAN_POINT ( 'NONE',  ( 0.0000000000000000000, 0.0000000000000000000, 0.07121431516969709000 ) ) ;
#61 =( CONVERSION_BASED_UNIT ( 'INCH', #184 ) LENGTH_UNIT ( ) NAMED_UNIT ( #253 ) );
#62 = ORIENTED_EDGE ( 'NONE', *, *, #17, .T. ) ;
#63 = EDGE_CURVE ( 'NONE', #76, #2, #120, .T. ) ;
#64 = APPROVAL_ROLE ( '' ) ;
#65 = COORDINATED_UNIVERSAL_TIME_OFFSET ( 5, 0, .BEHIND. ) ;
#66 = CARTESIAN_POINT ( 'NONE',  ( 0.0000000000000000000, 3.166908884777022000E-015, -0.07924344128455090800 ) ) ;
#67 = DIRECTION ( 'NONE',  ( 0.0000000000000000000, 0.0000000000000000000, -1.000000000000000000 ) ) ;
#68 = DESIGN_CONTEXT ( 'detailed design', #264, 'design' ) ;
#69 = MECHANICAL_CONTEXT ( 'NONE', #73, 'mechanical' ) ;
#70 = CIRCLE ( 'NONE', #233, 0.4999999999999999400 ) ;
#71 = ORIENTED_EDGE ( 'NONE', *, *, #259, .T. ) ;
#72 = VECTOR ( 'NONE', #50, 39.37007874015748900 ) ;
#73 = APPLICATION_CONTEXT ( 'configuration controlled 3d designs of mechanical parts and assemblies' ) ;
#74 = ORIENTED_EDGE ( 'NONE', *, *, #234, .T. ) ;
#75 = DIRECTION ( 'NONE',  ( 0.0000000000000000000, -1.000000000000000000, -1.267131977384704700E-016 ) ) ;
#76 = VERTEX_POINT ( 'NONE', #186 ) ;
#77 = DIRECTION ( 'NONE',  ( 0.0000000000000000000, -1.000000000000000000, -1.707404996040164800E-016 ) ) ;
#78 = DIRECTION ( 'NONE',  ( 1.000000000000000000, 0.0000000000000000000, 0.0000000000000000000 ) ) ;
#79 = DIRECTION ( 'NONE',  ( -1.000000000000000000, 0.0000000000000000000, -0.0000000000000000000 ) ) ;
#80 = SPHERICAL_SURFACE ( 'NONE', #262, 8.312244094488189500 ) ;
#81 = ORIENTED_EDGE ( 'NONE', *, *, #323, .F. ) ;
#82 = LINE ( 'NONE', #4, #72 ) ;
#83 = APPROVAL ( #322, 'UNSPECIFIED' ) ;
#84 = DIRECTION ( 'NONE',  ( -1.000000000000000000, 0.0000000000000000000, 0.0000000000000000000 ) ) ;
#85 = FACE_OUTER_BOUND ( 'NONE', #283, .T. ) ;
#86 = CARTESIAN_POINT ( 'NONE',  ( 0.0000000000000000000, 0.0000000000000000000, 0.0000000000000000000 ) ) ;
#87 = ORIENTED_EDGE ( 'NONE', *, *, #323, .T. ) ;
#88 =( LENGTH_UNIT ( ) NAMED_UNIT ( * ) SI_UNIT ( $, .METRE. ) );
#89 = LOCAL_TIME ( 14, 9, 30.00000000000000000, #65 ) ;
#90 = COORDINATED_UNIVERSAL_TIME_OFFSET ( 5, 0, .BEHIND. ) ;
#91 = CARTESIAN_POINT ( 'NONE',  ( 0.0000000000000000000, 0.0000000000000000000, 17.16117494509095600 ) ) ;
#92 = EDGE_CURVE ( 'NONE', #199, #255, #158, .T. ) ;
#93 = VECTOR ( 'NONE', #318, 39.37007874015748100 ) ;
#94 = AXIS2_PLACEMENT_3D ( 'NONE', #218, #84, #10 ) ;
#95 = PERSON_AND_ORGANIZATION ( #98, #137 ) ;
#96 = ORIENTED_EDGE ( 'NONE', *, *, #17, .F. ) ;
#97 = DIRECTION ( 'NONE',  ( -0.0000000000000000000, -1.836909530733566100E-016, 1.000000000000000000 ) ) ;
#98 = PERSON ( 'UNSPECIFIED', 'UNSPECIFIED', 'UNSPECIFIED', ('UNSPECIFIED'), ('UNSPECIFIED'), ('UNSPECIFIED') ) ;
#99 = EDGE_CURVE ( 'NONE', #272, #199, #41, .T. ) ;
#100 = VERTEX_POINT ( 'NONE', #134 ) ;
#101 = CC_DESIGN_DATE_AND_TIME_ASSIGNMENT ( #114, #136, ( #151 ) ) ;
#102 = ORIENTED_EDGE ( 'NONE', *, *, #104, .T. ) ;
#103 = CARTESIAN_POINT ( 'NONE',  ( 6.123233995736764800E-017, -0.4999999999999999400, 0.08036458335226415200 ) ) ;
#104 = EDGE_CURVE ( 'NONE', #235, #200, #273, .T. ) ;
#105 = PERSON_AND_ORGANIZATION ( #98, #137 ) ;
#106 = DIRECTION ( 'NONE',  ( 1.000000000000000000, 0.0000000000000000000, 0.0000000000000000000 ) ) ;
#107 = EDGE_CURVE ( 'NONE', #76, #200, #82, .T. ) ;
#108 = CIRCLE ( 'NONE', #296, 0.4944322300693971800 ) ;
#109 = CC_DESIGN_PERSON_AND_ORGANIZATION_ASSIGNMENT ( #105, #45, ( #27 ) ) ;
#110 = DIRECTION ( 'NONE',  ( 8.659560562354878600E-017, -0.7071067811865430200, -0.7071067811865520100 ) ) ;
#111 = ORIENTED_EDGE ( 'NONE', *, *, #140, .F. ) ;
#112 = ORIENTED_EDGE ( 'NONE', *, *, #303, .T. ) ;
#113 = CARTESIAN_POINT ( 'NONE',  ( 0.0000000000000000000, 0.0000000000000000000, 17.16117494509095600 ) ) ;
#114 = DATE_AND_TIME ( #127, #310 ) ;
#115 = DATE_AND_TIME ( #286, #238 ) ;
#116 = AXIS2_PLACEMENT_3D ( 'NONE', #295, #329, #304 ) ;
#117 = CIRCLE ( 'NONE', #236, 0.4921310901717038700 ) ;
#118 = SPHERICAL_SURFACE ( 'NONE', #230, 17.24744094488188800 ) ;
#119 = SHAPE_DEFINITION_REPRESENTATION ( #254, #25 ) ;
#120 = CIRCLE ( 'NONE', #282, 0.4944322300693971800 ) ;
#121 = PERSON_AND_ORGANIZATION_ROLE ( 'design_supplier' ) ;
#122 = DATE_AND_TIME ( #56, #89 ) ;
#123 = CONICAL_SURFACE ( 'NONE', #48, 0.4999999999999999400, 0.7709012283977565400 ) ;
#124 = CARTESIAN_POINT ( 'NONE',  ( 0.0000000000000000000, -2.703570448378176300E-018, 0.08593235328286703800 ) ) ;
#125 = APPROVAL_STATUS ( 'not_yet_approved' ) ;
#126 = FACE_OUTER_BOUND ( 'NONE', #59, .T. ) ;
#127 = CALENDAR_DATE ( 2018, 1, 6 ) ;
#128 = EDGE_LOOP ( 'NONE', ( #81, #131, #206 ) ) ;
#129 = APPROVAL_ROLE ( '' ) ;
#130 = CC_DESIGN_PERSON_AND_ORGANIZATION_ASSIGNMENT ( #203, #176, ( #151 ) ) ;
#131 = ORIENTED_EDGE ( 'NONE', *, *, #257, .T. ) ;
#132 = DIRECTION ( 'NONE',  ( 0.0000000000000000000, -1.000000000000000000, -1.878145495644181100E-016 ) ) ;
#133 = CARTESIAN_POINT ( 'NONE',  ( 0.0000000000000000000, 2.614975250196223500E-017, -0.07114300871831923100 ) ) ;
#134 = CARTESIAN_POINT ( 'NONE',  ( 0.0000000000000000000, -0.4999999999999999400, -0.07114300871831932800 ) ) ;
#135 = DIRECTION ( 'NONE',  ( -0.0000000000000000000, -1.836909530733566100E-016, 1.000000000000000000 ) ) ;
#136 = DATE_TIME_ROLE ( 'creation_date' ) ;
#137 = ORGANIZATION ( 'UNSPECIFIED', 'UNSPECIFIED', '' ) ;
#138 = AXIS2_PLACEMENT_3D ( 'NONE', #91, #79, #7 ) ;
#139 = EDGE_CURVE ( 'NONE', #200, #35, #228, .T. ) ;
#140 = EDGE_CURVE ( 'NONE', #35, #200, #70, .T. ) ;
#141 = FACE_OUTER_BOUND ( 'NONE', #192, .T. ) ;
#142 = AXIS2_PLACEMENT_3D ( 'NONE', #225, #320, #309 ) ;
#143 = CARTESIAN_POINT ( 'NONE',  ( 6.026867643396838600E-017, 0.4921310901717145200, -0.07924344128455088100 ) ) ;
#144 = APPLICATION_PROTOCOL_DEFINITION ( 'international standard', 'config_control_design', 1994, #73 ) ;
#145 = CC_DESIGN_PERSON_AND_ORGANIZATION_ASSIGNMENT ( #162, #146, ( #13 ) ) ;
#146 = PERSON_AND_ORGANIZATION_ROLE ( 'creator' ) ;
#147 = ORIENTED_EDGE ( 'NONE', *, *, #43, .T. ) ;
#148 = ORIENTED_EDGE ( 'NONE', *, *, #201, .F. ) ;
#149 = FACE_OUTER_BOUND ( 'NONE', #19, .T. ) ;
#150 = DIRECTION ( 'NONE',  ( 1.000000000000000000, 0.0000000000000000000, 0.0000000000000000000 ) ) ;
#151 = PRODUCT_DEFINITION ( 'UNKNOWN', '', #13, #68 ) ;
#152 = DIRECTION ( 'NONE',  ( 1.000000000000000000, 0.0000000000000000000, 0.0000000000000000000 ) ) ;
#153 = VECTOR ( 'NONE', #198, 39.37007874015748100 ) ;
#154 = CC_DESIGN_PERSON_AND_ORGANIZATION_ASSIGNMENT ( #193, #121, ( #13 ) ) ;
#155 = ADVANCED_FACE ( 'NONE', ( #126 ), #123, .T. ) ;
#156 = DIRECTION ( 'NONE',  ( 0.0000000000000000000, 0.0000000000000000000, 1.000000000000000000 ) ) ;
#157 = ORIENTED_EDGE ( 'NONE', *, *, #92, .T. ) ;
#158 = CIRCLE ( 'NONE', #191, 0.4921310901717038700 ) ;
#159 = EDGE_CURVE ( 'NONE', #255, #199, #117, .T. ) ;
#160 = CONICAL_SURFACE ( 'NONE', #116, 0.4999999999999999400, 0.7709012283977565400 ) ;
#161 = APPROVAL_STATUS ( 'not_yet_approved' ) ;
#162 = PERSON_AND_ORGANIZATION ( #98, #137 ) ;
#163 = CARTESIAN_POINT ( 'NONE',  ( 0.0000000000000000000, 2.614975250196223500E-017, -0.07114300871831923100 ) ) ;
#164 = FACE_OUTER_BOUND ( 'NONE', #268, .T. ) ;
#165 = DIRECTION ( 'NONE',  ( 0.0000000000000000000, 1.000000000000000000, 1.707404996040164800E-016 ) ) ;
#166 = CC_DESIGN_PERSON_AND_ORGANIZATION_ASSIGNMENT ( #227, #57, ( #299 ) ) ;
#167 = ORIENTED_EDGE ( 'NONE', *, *, #99, .F. ) ;
#168 = SPHERICAL_SURFACE ( 'NONE', #232, 17.24744094488188800 ) ;
#169 = DIRECTION ( 'NONE',  ( 0.0000000000000000000, 1.836909530733566100E-016, -1.000000000000000000 ) ) ;
#170 = APPROVAL_DATE_TIME ( #301, #51 ) ;
#171 = APPROVAL_ROLE ( '' ) ;
#172 = CONICAL_SURFACE ( 'NONE', #231, 0.4999999999999999400, 0.7853981633974420600 ) ;
#173 = CC_DESIGN_APPROVAL ( #51, ( #151 ) ) ;
#174 = CARTESIAN_POINT ( 'NONE',  ( 0.0000000000000000000, -1.680821483332569200E-018, 0.08036458335226423500 ) ) ;
#175 = DIRECTION ( 'NONE',  ( 1.000000000000000000, -1.224646799147353200E-016, -2.249565377136128300E-032 ) ) ;
#176 = PERSON_AND_ORGANIZATION_ROLE ( 'creator' ) ;
#177 = CIRCLE ( 'NONE', #252, 0.4999999999999999400 ) ;
#178 = DIRECTION ( 'NONE',  ( 0.0000000000000000000, 1.836909530733731100E-016, -1.000000000000000000 ) ) ;
#179 = DIRECTION ( 'NONE',  ( -0.0000000000000000000, -1.836909530733566100E-016, 1.000000000000000000 ) ) ;
#180 = LINE ( 'NONE', #313, #214 ) ;
#181 = DATE_AND_TIME ( #18, #24 ) ;
#182 = LINE ( 'NONE', #260, #215 ) ;
#183 = ORIENTED_EDGE ( 'NONE', *, *, #104, .F. ) ;
#184 = LENGTH_MEASURE_WITH_UNIT ( LENGTH_MEASURE( 0.02539999999999999900 ), #88 );
#185 = AXIS2_PLACEMENT_3D ( 'NONE', #270, #175, #271 ) ;
#186 = CARTESIAN_POINT ( 'NONE',  ( 0.0000000000000000000, 0.4944322300693957400, 0.08593235328286649700 ) ) ;
#187 = ADVANCED_FACE ( 'NONE', ( #197 ), #22, .F. ) ;
#188 = ADVANCED_FACE ( 'NONE', ( #164 ), #80, .F. ) ;
#189 = ORIENTED_EDGE ( 'NONE', *, *, #43, .F. ) ;
#190 = AXIS2_PLACEMENT_3D ( 'NONE', #326, #150, #67 ) ;
#191 = AXIS2_PLACEMENT_3D ( 'NONE', #285, #178, #274 ) ;
#192 = EDGE_LOOP ( 'NONE', ( #167, #74, #211 ) ) ;
#193 = PERSON_AND_ORGANIZATION ( #98, #137 ) ;
#194 = CARTESIAN_POINT ( 'NONE',  ( 0.0000000000000000000, 0.0000000000000000000, 0.07121431516969709000 ) ) ;
#195 = ORIENTED_EDGE ( 'NONE', *, *, #237, .F. ) ;
#196 = AXIS2_PLACEMENT_3D ( 'NONE', #60, #179, #53 ) ;
#197 = FACE_OUTER_BOUND ( 'NONE', #128, .T. ) ;
#198 = DIRECTION ( 'NONE',  ( 8.533117937323609000E-017, 0.6967819573173830200, 0.7172830013021057600 ) ) ;
#199 = VERTEX_POINT ( 'NONE', #250 ) ;
#200 = VERTEX_POINT ( 'NONE', #42 ) ;
#201 = EDGE_CURVE ( 'NONE', #100, #35, #182, .T. ) ;
#202 = APPLICATION_PROTOCOL_DEFINITION ( 'international standard', 'config_control_design', 1994, #264 ) ;
#203 = PERSON_AND_ORGANIZATION ( #98, #137 ) ;
#204 = EDGE_CURVE ( 'NONE', #235, #100, #177, .T. ) ;
#205 = CARTESIAN_POINT ( 'NONE',  ( 0.0000000000000000000, 2.035862196097238000E-015, 0.07121431516969710400 ) ) ;
#206 = ORIENTED_EDGE ( 'NONE', *, *, #63, .T. ) ;
#207 = PERSON_AND_ORGANIZATION ( #98, #137 ) ;
#208 = LINE ( 'NONE', #245, #153 ) ;
#209 = FACE_OUTER_BOUND ( 'NONE', #258, .T. ) ;
#210 = ORIENTED_EDGE ( 'NONE', *, *, #99, .T. ) ;
#211 = ORIENTED_EDGE ( 'NONE', *, *, #159, .T. ) ;
#212 = CC_DESIGN_APPROVAL ( #269, ( #13 ) ) ;
#213 = CALENDAR_DATE ( 2018, 1, 6 ) ;
#214 = VECTOR ( 'NONE', #3, 39.37007874015748100 ) ;
#215 = VECTOR ( 'NONE', #9, 39.37007874015748100 ) ;
#216 = DIRECTION ( 'NONE',  ( -0.0000000000000000000, -1.836909530733731100E-016, 1.000000000000000000 ) ) ;
#217 = ADVANCED_FACE ( 'NONE', ( #141 ), #168, .T. ) ;
#218 = CARTESIAN_POINT ( 'NONE',  ( 0.0000000000000000000, 0.0000000000000000000, 8.383458409657887200 ) ) ;
#219 = UNCERTAINTY_MEASURE_WITH_UNIT (LENGTH_MEASURE( 1.000000000000000100E-005 ), #61, 'distance_accuracy_value', 'NONE');
#220 = DATE_TIME_ROLE ( 'classification_date' ) ;
#221 = DIRECTION ( 'NONE',  ( -1.000000000000000000, 1.224646799147353200E-016, 2.249565377136128300E-032 ) ) ;
#222 = ORIENTED_EDGE ( 'NONE', *, *, #259, .F. ) ;
#223 = CARTESIAN_POINT ( 'NONE',  ( -6.055048479497732300E-017, -0.4944322300693941900, 0.08593235328286640000 ) ) ;
#224 = PRODUCT_RELATED_PRODUCT_CATEGORY ( 'detail', '', ( #27 ) ) ;
#225 = CARTESIAN_POINT ( 'NONE',  ( 0.0000000000000000000, -1.680821483332569200E-018, 0.08036458335226423500 ) ) ;
#226 = CARTESIAN_POINT ( 'NONE',  ( 0.0000000000000000000, -1.680821483332569200E-018, 0.08036458335226423500 ) ) ;
#227 = PERSON_AND_ORGANIZATION ( #98, #137 ) ;
#228 = CIRCLE ( 'NONE', #290, 0.4999999999999999400 ) ;
#229 = ORIENTED_EDGE ( 'NONE', *, *, #107, .T. ) ;
#230 = AXIS2_PLACEMENT_3D ( 'NONE', #113, #152, #249 ) ;
#231 = AXIS2_PLACEMENT_3D ( 'NONE', #305, #169, #165 ) ;
#232 = AXIS2_PLACEMENT_3D ( 'NONE', #298, #78, #75 ) ;
#233 = AXIS2_PLACEMENT_3D ( 'NONE', #174, #243, #77 ) ;
#234 = EDGE_CURVE ( 'NONE', #272, #255, #317, .T. ) ;
#235 = VERTEX_POINT ( 'NONE', #241 ) ;
#236 = AXIS2_PLACEMENT_3D ( 'NONE', #66, #244, #327 ) ;
#237 = EDGE_CURVE ( 'NONE', #2, #76, #108, .T. ) ;
#238 = LOCAL_TIME ( 14, 9, 30.00000000000000000, #312 ) ;
#239 = ADVANCED_FACE ( 'NONE', ( #30 ), #289, .T. ) ;
#240 = DIRECTION ( 'NONE',  ( -0.0000000000000000000, -1.836909530733566100E-016, 1.000000000000000000 ) ) ;
#241 = CARTESIAN_POINT ( 'NONE',  ( 6.123233995736764800E-017, 0.4999999999999999400, -0.07114300871831913400 ) ) ;
#242 = ORIENTED_EDGE ( 'NONE', *, *, #257, .F. ) ;
#243 = DIRECTION ( 'NONE',  ( -0.0000000000000000000, -1.836909530733566100E-016, 1.000000000000000000 ) ) ;
#244 = DIRECTION ( 'NONE',  ( 0.0000000000000000000, 1.836909530733731100E-016, -1.000000000000000000 ) ) ;
#245 = CARTESIAN_POINT ( 'NONE',  ( 6.123233995736764800E-017, 0.4999999999999999400, -0.07114300871831912000 ) ) ;
#246 = PERSON_AND_ORGANIZATION ( #98, #137 ) ;
#247 = DIRECTION ( 'NONE',  ( 0.0000000000000000000, -1.000000000000000000, -1.878145495644181100E-016 ) ) ;
#248 = ORIENTED_EDGE ( 'NONE', *, *, #92, .F. ) ;
#249 = DIRECTION ( 'NONE',  ( 0.0000000000000000000, -1.000000000000000000, -1.267131977384704700E-016 ) ) ;
#250 = CARTESIAN_POINT ( 'NONE',  ( 0.0000000000000000000, -0.4921310901717082000, -0.07924344128455097800 ) ) ;
#251 = DIRECTION ( 'NONE',  ( -0.0000000000000000000, -1.836909530733731100E-016, 1.000000000000000000 ) ) ;
#252 = AXIS2_PLACEMENT_3D ( 'NONE', #133, #251, #308 ) ;
#253 = DIMENSIONAL_EXPONENTS ( 1.000000000000000000, 0.0000000000000000000, 0.0000000000000000000, 0.0000000000000000000, 0.0000000000000000000, 0.0000000000000000000, 0.0000000000000000000 ) ;
#254 = PRODUCT_DEFINITION_SHAPE ( 'NONE', 'NONE',  #151 ) ;
#255 = VERTEX_POINT ( 'NONE', #143 ) ;
#256 = ORIENTED_EDGE ( 'NONE', *, *, #140, .T. ) ;
#257 = EDGE_CURVE ( 'NONE', #32, #76, #293, .T. ) ;
#258 = EDGE_LOOP ( 'NONE', ( #183, #281, #39, #23 ) ) ;
#259 = EDGE_CURVE ( 'NONE', #2, #35, #1, .T. ) ;
#260 = CARTESIAN_POINT ( 'NONE',  ( 0.0000000000000000000, -0.4999999999999999400, 0.07121431516969699300 ) ) ;
#261 = DIRECTION ( 'NONE',  ( 0.0000000000000000000, -1.000000000000000000, -1.707404996040164800E-016 ) ) ;
#262 = AXIS2_PLACEMENT_3D ( 'NONE', #291, #328, #319 ) ;
#263 = CARTESIAN_POINT ( 'NONE',  ( 0.0000000000000000000, 0.0000000000000000000, 8.383458409657887200 ) ) ;
#264 = APPLICATION_CONTEXT ( 'configuration controlled 3d designs of mechanical parts and assemblies' ) ;
#265 = ORIENTED_EDGE ( 'NONE', *, *, #234, .F. ) ;
#266 = CONICAL_SURFACE ( 'NONE', #142, 0.4999999999999999400, 0.7853981633974420600 ) ;
#267 = COORDINATED_UNIVERSAL_TIME_OFFSET ( 5, 0, .BEHIND. ) ;
#268 = EDGE_LOOP ( 'NONE', ( #242, #87, #54 ) ) ;
#269 = APPROVAL ( #161, 'UNSPECIFIED' ) ;
#270 = CARTESIAN_POINT ( 'NONE',  ( 0.0000000000000000000, 0.0000000000000000000, 17.16117494509095600 ) ) ;
#271 = DIRECTION ( 'NONE',  ( 1.224646799147353500E-016, 1.000000000000000000, 0.0000000000000000000 ) ) ;
#272 = VERTEX_POINT ( 'NONE', #16 ) ;
#273 = LINE ( 'NONE', #12, #93 ) ;
#274 = DIRECTION ( 'NONE',  ( 0.0000000000000000000, -1.000000000000000000, -1.734705478010394900E-016 ) ) ;
#275 = VECTOR ( 'NONE', #110, 39.37007874015748100 ) ;
#276 = ADVANCED_FACE ( 'NONE', ( #321 ), #172, .T. ) ;
#277 = ORIENTED_EDGE ( 'NONE', *, *, #139, .T. ) ;
#278 = ORIENTED_EDGE ( 'NONE', *, *, #107, .F. ) ;
#279 = AXIS2_PLACEMENT_3D ( 'NONE', #163, #216, #132 ) ;
#280 = APPROVAL_PERSON_ORGANIZATION ( #95, #51, #171 ) ;
#281 = ORIENTED_EDGE ( 'NONE', *, *, #204, .T. ) ;
#282 = AXIS2_PLACEMENT_3D ( 'NONE', #124, #38, #21 ) ;
#283 = EDGE_LOOP ( 'NONE', ( #195, #71, #256, #278 ) ) ;
#284 = CARTESIAN_POINT ( 'NONE',  ( 0.0000000000000000000, 2.614975250196195700E-017, -0.07114300871831921700 ) ) ;
#285 = CARTESIAN_POINT ( 'NONE',  ( 0.0000000000000000000, 3.166908884777022000E-015, -0.07924344128455090800 ) ) ;
#286 = CALENDAR_DATE ( 2018, 1, 6 ) ;
#287 = DIRECTION ( 'NONE',  ( 0.0000000000000000000, -1.000000000000000000, -1.878145495644181100E-016 ) ) ;
#288 = DIRECTION ( 'NONE',  ( -0.0000000000000000000, -1.836909530733731100E-016, 1.000000000000000000 ) ) ;
#289 = CYLINDRICAL_SURFACE ( 'NONE', #314, 0.4999999999999999400 ) ;
#290 = AXIS2_PLACEMENT_3D ( 'NONE', #226, #240, #261 ) ;
#291 = CARTESIAN_POINT ( 'NONE',  ( 0.0000000000000000000, 0.0000000000000000000, 8.383458409657887200 ) ) ;
#292 = CC_DESIGN_DATE_AND_TIME_ASSIGNMENT ( #181, #220, ( #299 ) ) ;
#293 = CIRCLE ( 'NONE', #190, 8.312244094488189500 ) ;
#294 = EDGE_LOOP ( 'NONE', ( #112, #102, #111, #148 ) ) ;
#295 = CARTESIAN_POINT ( 'NONE',  ( 0.0000000000000000000, 2.614975250196195700E-017, -0.07114300871831921700 ) ) ;
#296 = AXIS2_PLACEMENT_3D ( 'NONE', #6, #97, #20 ) ;
#297 = COORDINATED_UNIVERSAL_TIME_OFFSET ( 5, 0, .BEHIND. ) ;
#298 = CARTESIAN_POINT ( 'NONE',  ( 0.0000000000000000000, 0.0000000000000000000, 17.16117494509095600 ) ) ;
#299 = SECURITY_CLASSIFICATION ( '', '', #28 ) ;
#300 =( NAMED_UNIT ( * ) SI_UNIT ( $, .STERADIAN. ) SOLID_ANGLE_UNIT ( ) );
#301 = DATE_AND_TIME ( #213, #324 ) ;
#302 = AXIS2_PLACEMENT_3D ( 'NONE', #86, #156, #106 ) ;
#303 = EDGE_CURVE ( 'NONE', #100, #235, #306, .T. ) ;
#304 = DIRECTION ( 'NONE',  ( 0.0000000000000000000, -1.000000000000000000, -1.878145495644181100E-016 ) ) ;
#305 = CARTESIAN_POINT ( 'NONE',  ( 0.0000000000000000000, -1.680821483332569200E-018, 0.08036458335226423500 ) ) ;
#306 = CIRCLE ( 'NONE', #279, 0.4999999999999999400 ) ;
#307 = AXIS2_PLACEMENT_3D ( 'NONE', #263, #221, #58 ) ;
#308 = DIRECTION ( 'NONE',  ( 0.0000000000000000000, -1.000000000000000000, -1.878145495644181100E-016 ) ) ;
#309 = DIRECTION ( 'NONE',  ( 0.0000000000000000000, 1.000000000000000000, 1.707404996040164800E-016 ) ) ;
#310 = LOCAL_TIME ( 14, 9, 30.00000000000000000, #297 ) ;
#311 = ADVANCED_FACE ( 'NONE', ( #209 ), #47, .T. ) ;
#312 = COORDINATED_UNIVERSAL_TIME_OFFSET ( 5, 0, .BEHIND. ) ;
#313 = CARTESIAN_POINT ( 'NONE',  ( 0.0000000000000000000, -0.4999999999999999400, -0.07114300871831931400 ) ) ;
#314 = AXIS2_PLACEMENT_3D ( 'NONE', #194, #135, #287 ) ;
#315 = ORIENTED_EDGE ( 'NONE', *, *, #204, .F. ) ;
#316 = CARTESIAN_POINT ( 'NONE',  ( 0.0000000000000000000, -0.4999999999999999400, 0.08036458335226415200 ) ) ;
#317 = CIRCLE ( 'NONE', #185, 17.24744094488188800 ) ;
#318 = DIRECTION ( 'NONE',  ( -0.0000000000000000000, -1.836909530733566100E-016, 1.000000000000000000 ) ) ;
#319 = DIRECTION ( 'NONE',  ( 0.0000000000000000000, 1.000000000000000000, 1.314613941847900700E-016 ) ) ;
#320 = DIRECTION ( 'NONE',  ( 0.0000000000000000000, 1.836909530733566100E-016, -1.000000000000000000 ) ) ;
#321 = FACE_OUTER_BOUND ( 'NONE', #40, .T. ) ;
#322 = APPROVAL_STATUS ( 'not_yet_approved' ) ;
#323 = EDGE_CURVE ( 'NONE', #32, #2, #330, .T. ) ;
#324 = LOCAL_TIME ( 14, 9, 30.00000000000000000, #267 ) ;
#325 = APPROVAL_DATE_TIME ( #115, #83 ) ;
#326 = CARTESIAN_POINT ( 'NONE',  ( 0.0000000000000000000, 0.0000000000000000000, 8.383458409657887200 ) ) ;
#327 = DIRECTION ( 'NONE',  ( 0.0000000000000000000, -1.000000000000000000, -1.734705478010394900E-016 ) ) ;
#328 = DIRECTION ( 'NONE',  ( -1.000000000000000000, 0.0000000000000000000, 0.0000000000000000000 ) ) ;
#329 = DIRECTION ( 'NONE',  ( -0.0000000000000000000, -1.836909530733731100E-016, 1.000000000000000000 ) ) ;
#330 = CIRCLE ( 'NONE', #307, 8.312244094488189500 ) ;
ENDSEC;
END-ISO-10303-21;
