ISO-10303-21;
HEADER;
FILE_DESCRIPTION (( 'STEP AP203' ),
    '1' );
FILE_NAME ('Web Model 88430.STEP',
    '2017-02-01T16:22:14',
    ( '' ),
    ( '' ),
    'SwSTEP 2.0',
    'SolidWorks 2016',
    '' );
FILE_SCHEMA (( 'CONFIG_CONTROL_DESIGN' ));
ENDSEC;

DATA;
#1 = DATE_AND_TIME ( #85, #103 ) ;
#2 = APPLICATION_CONTEXT ( 'configuration controlled 3d designs of mechanical parts and assemblies' ) ;
#3 = APPLICATION_PROTOCOL_DEFINITION ( 'international standard', 'config_control_design', 1994, #2 ) ;
#4 = PLANE ( 'NONE',  #169 ) ;
#5 = CC_DESIGN_PERSON_AND_ORGANIZATION_ASSIGNMENT ( #102, #163, ( #84 ) ) ;
#6 = CARTESIAN_POINT ( 'NONE',  ( 0.0000000000000000000, 0.0000000000000000000, 0.0000000000000000000 ) ) ;
#7 = ORIENTED_EDGE ( 'NONE', *, *, #129, .T. ) ;
#8 = CC_DESIGN_DATE_AND_TIME_ASSIGNMENT ( #25, #86, ( #84 ) ) ;
#9 = AXIS2_PLACEMENT_3D ( 'NONE', #140, #137, #110 ) ;
#10 = PRODUCT_DEFINITION_SHAPE ( 'NONE', 'NONE',  #84 ) ;
#11 = PERSON_AND_ORGANIZATION ( #155, #52 ) ;
#12 = CIRCLE ( 'NONE', #89, 12.50000000000000000 ) ;
#13 =( GEOMETRIC_REPRESENTATION_CONTEXT ( 3 ) GLOBAL_UNCERTAINTY_ASSIGNED_CONTEXT ( ( #14 ) ) GLOBAL_UNIT_ASSIGNED_CONTEXT ( ( #75, #58, #123 ) ) REPRESENTATION_CONTEXT ( 'NONE', 'WORKASPACE' ) );
#14 = UNCERTAINTY_MEASURE_WITH_UNIT (LENGTH_MEASURE( 1.000000000000000100E-005 ), #75, 'distance_accuracy_value', 'NONE');
#15 = CC_DESIGN_PERSON_AND_ORGANIZATION_ASSIGNMENT ( #47, #77, ( #68 ) ) ;
#16 = CC_DESIGN_DATE_AND_TIME_ASSIGNMENT ( #158, #73, ( #19 ) ) ;
#17 = CARTESIAN_POINT ( 'NONE',  ( 0.0000000000000000000, 0.0000000000000000000, 0.0000000000000000000 ) ) ;
#18 = COORDINATED_UNIVERSAL_TIME_OFFSET ( 5, 0, .BEHIND. ) ;
#19 = SECURITY_CLASSIFICATION ( '', '', #46 ) ;
#20 = PERSON_AND_ORGANIZATION_ROLE ( 'creator' ) ;
#21 = CARTESIAN_POINT ( 'NONE',  ( 0.0000000000000000000, 12.50000000000000000, -2.300000000000000700 ) ) ;
#22 = DIRECTION ( 'NONE',  ( 0.0000000000000000000, -0.0000000000000000000, 1.000000000000000000 ) ) ;
#23 = DIRECTION ( 'NONE',  ( -0.0000000000000000000, -0.0000000000000000000, 1.000000000000000000 ) ) ;
#24 = PERSON_AND_ORGANIZATION ( #155, #52 ) ;
#25 = DATE_AND_TIME ( #130, #168 ) ;
#26 = APPROVAL ( #164, 'UNSPECIFIED' ) ;
#27 = VERTEX_POINT ( 'NONE', #83 ) ;
#28 = CALENDAR_DATE ( 2017, 1, 2 ) ;
#29 = VERTEX_POINT ( 'NONE', #67 ) ;
#30 = PRODUCT_RELATED_PRODUCT_CATEGORY ( 'detail', '', ( #68 ) ) ;
#31 = DIRECTION ( 'NONE',  ( 0.0000000000000000000, 0.0000000000000000000, -1.000000000000000000 ) ) ;
#32 = CYLINDRICAL_SURFACE ( 'NONE', #154, 12.50000000000000000 ) ;
#33 = APPROVAL_DATE_TIME ( #50, #64 ) ;
#34 = ORIENTED_EDGE ( 'NONE', *, *, #129, .F. ) ;
#35 = ADVANCED_FACE ( 'NONE', ( #170 ), #61, .T. ) ;
#36 = AXIS2_PLACEMENT_3D ( 'NONE', #42, #31, #94 ) ;
#37 = ORIENTED_EDGE ( 'NONE', *, *, #147, .T. ) ;
#38 = DATE_AND_TIME ( #119, #81 ) ;
#39 = ORIENTED_EDGE ( 'NONE', *, *, #112, .F. ) ;
#40 = ADVANCED_BREP_SHAPE_REPRESENTATION ( 'Web Model 88430', ( #51, #9 ), #13 ) ;
#41 = VERTEX_POINT ( 'NONE', #92 ) ;
#42 = CARTESIAN_POINT ( 'NONE',  ( 0.0000000000000000000, 0.0000000000000000000, 0.0000000000000000000 ) ) ;
#43 = CARTESIAN_POINT ( 'NONE',  ( 0.0000000000000000000, 0.0000000000000000000, 0.0000000000000000000 ) ) ;
#44 = AXIS2_PLACEMENT_3D ( 'NONE', #6, #23, #153 ) ;
#45 = ADVANCED_FACE ( 'NONE', ( #175 ), #70, .F. ) ;
#46 = SECURITY_CLASSIFICATION_LEVEL ( 'unclassified' ) ;
#47 = PERSON_AND_ORGANIZATION ( #155, #52 ) ;
#48 = ORIENTED_EDGE ( 'NONE', *, *, #121, .F. ) ;
#49 = MECHANICAL_CONTEXT ( 'NONE', #2, 'mechanical' ) ;
#50 = DATE_AND_TIME ( #28, #114 ) ;
#51 = MANIFOLD_SOLID_BREP ( 'Revolve1', #167 ) ;
#52 = ORGANIZATION ( 'UNSPECIFIED', 'UNSPECIFIED', '' ) ;
#53 = AXIS2_PLACEMENT_3D ( 'NONE', #151, #166, #71 ) ;
#54 = ORIENTED_EDGE ( 'NONE', *, *, #112, .T. ) ;
#55 = CC_DESIGN_APPROVAL ( #100, ( #84 ) ) ;
#56 = DIRECTION ( 'NONE',  ( 1.000000000000000000, 0.0000000000000000000, 0.0000000000000000000 ) ) ;
#57 = FACE_OUTER_BOUND ( 'NONE', #95, .T. ) ;
#58 =( NAMED_UNIT ( * ) PLANE_ANGLE_UNIT ( ) SI_UNIT ( $, .RADIAN. ) );
#59 = APPROVAL_STATUS ( 'not_yet_approved' ) ;
#60 = APPROVAL_STATUS ( 'not_yet_approved' ) ;
#61 = CYLINDRICAL_SURFACE ( 'NONE', #144, 12.50000000000000000 ) ;
#62 = APPROVAL_PERSON_ORGANIZATION ( #93, #26, #87 ) ;
#63 = CIRCLE ( 'NONE', #44, 12.50000000000000000 ) ;
#64 = APPROVAL ( #60, 'UNSPECIFIED' ) ;
#65 = COORDINATED_UNIVERSAL_TIME_OFFSET ( 5, 0, .BEHIND. ) ;
#66 = CARTESIAN_POINT ( 'NONE',  ( -12.50000000000000000, 1.530808498934191500E-015, 0.0000000000000000000 ) ) ;
#67 = CARTESIAN_POINT ( 'NONE',  ( 12.50000000000000000, 0.0000000000000000000, 0.0000000000000000000 ) ) ;
#68 = PRODUCT ( 'Web Model 88430', 'Web Model 88430', '', ( #49 ) ) ;
#69 = DIRECTION ( 'NONE',  ( -0.0000000000000000000, -0.0000000000000000000, 1.000000000000000000 ) ) ;
#70 = PLANE ( 'NONE',  #36 ) ;
#71 = DIRECTION ( 'NONE',  ( 1.000000000000000000, 0.0000000000000000000, 0.0000000000000000000 ) ) ;
#72 = APPLICATION_PROTOCOL_DEFINITION ( 'international standard', 'config_control_design', 1994, #150 ) ;
#73 = DATE_TIME_ROLE ( 'classification_date' ) ;
#74 = EDGE_CURVE ( 'NONE', #41, #29, #132, .T. ) ;
#75 =( LENGTH_UNIT ( ) NAMED_UNIT ( * ) SI_UNIT ( .MILLI., .METRE. ) );
#76 = ORIENTED_EDGE ( 'NONE', *, *, #74, .F. ) ;
#77 = PERSON_AND_ORGANIZATION_ROLE ( 'design_owner' ) ;
#78 = APPROVAL_PERSON_ORGANIZATION ( #120, #100, #152 ) ;
#79 = APPROVAL_DATE_TIME ( #38, #26 ) ;
#80 = VERTEX_POINT ( 'NONE', #162 ) ;
#81 = LOCAL_TIME ( 11, 22, 14.00000000000000000, #111 ) ;
#82 = PRODUCT_DEFINITION_FORMATION_WITH_SPECIFIED_SOURCE ( 'ANY', '', #68, .NOT_KNOWN. ) ;
#83 = CARTESIAN_POINT ( 'NONE',  ( -12.50000000000000000, 1.530808498934191500E-015, -2.299999999999999800 ) ) ;
#84 = PRODUCT_DEFINITION ( 'UNKNOWN', '', #82, #104 ) ;
#85 = CALENDAR_DATE ( 2017, 1, 2 ) ;
#86 = DATE_TIME_ROLE ( 'creation_date' ) ;
#87 = APPROVAL_ROLE ( '' ) ;
#88 = CC_DESIGN_APPROVAL ( #26, ( #19 ) ) ;
#89 = AXIS2_PLACEMENT_3D ( 'NONE', #96, #124, #122 ) ;
#90 = CALENDAR_DATE ( 2017, 1, 2 ) ;
#91 = CC_DESIGN_PERSON_AND_ORGANIZATION_ASSIGNMENT ( #24, #165, ( #19 ) ) ;
#92 = CARTESIAN_POINT ( 'NONE',  ( 12.50000000000000000, 0.0000000000000000000, -2.299999999999999800 ) ) ;
#93 = PERSON_AND_ORGANIZATION ( #155, #52 ) ;
#94 = DIRECTION ( 'NONE',  ( -1.000000000000000000, 0.0000000000000000000, -0.0000000000000000000 ) ) ;
#95 = EDGE_LOOP ( 'NONE', ( #116, #157 ) ) ;
#96 = CARTESIAN_POINT ( 'NONE',  ( 0.0000000000000000000, 0.0000000000000000000, -2.299999999999999800 ) ) ;
#97 = APPROVAL_ROLE ( '' ) ;
#98 = DIRECTION ( 'NONE',  ( 1.000000000000000000, 0.0000000000000000000, 0.0000000000000000000 ) ) ;
#99 = VECTOR ( 'NONE', #135, 1000.000000000000000 ) ;
#100 = APPROVAL ( #59, 'UNSPECIFIED' ) ;
#101 = CIRCLE ( 'NONE', #173, 12.50000000000000000 ) ;
#102 = PERSON_AND_ORGANIZATION ( #155, #52 ) ;
#103 = LOCAL_TIME ( 11, 22, 14.00000000000000000, #18 ) ;
#104 = DESIGN_CONTEXT ( 'detailed design', #150, 'design' ) ;
#105 = CC_DESIGN_APPROVAL ( #64, ( #82 ) ) ;
#106 = DIRECTION ( 'NONE',  ( -0.0000000000000000000, -0.0000000000000000000, 1.000000000000000000 ) ) ;
#107 = ADVANCED_FACE ( 'NONE', ( #172 ), #32, .T. ) ;
#108 = DIRECTION ( 'NONE',  ( 1.000000000000000000, 0.0000000000000000000, 0.0000000000000000000 ) ) ;
#109 = EDGE_LOOP ( 'NONE', ( #37, #126, #39, #76 ) ) ;
#110 = DIRECTION ( 'NONE',  ( 1.000000000000000000, 0.0000000000000000000, 0.0000000000000000000 ) ) ;
#111 = COORDINATED_UNIVERSAL_TIME_OFFSET ( 5, 0, .BEHIND. ) ;
#112 = EDGE_CURVE ( 'NONE', #29, #80, #101, .T. ) ;
#113 = CC_DESIGN_PERSON_AND_ORGANIZATION_ASSIGNMENT ( #11, #20, ( #82 ) ) ;
#114 = LOCAL_TIME ( 11, 22, 14.00000000000000000, #133 ) ;
#115 = CIRCLE ( 'NONE', #53, 12.50000000000000000 ) ;
#116 = ORIENTED_EDGE ( 'NONE', *, *, #147, .F. ) ;
#117 = CC_DESIGN_SECURITY_CLASSIFICATION ( #19, ( #82 ) ) ;
#118 = CARTESIAN_POINT ( 'NONE',  ( 0.0000000000000000000, 0.0000000000000000000, 0.0000000000000000000 ) ) ;
#119 = CALENDAR_DATE ( 2017, 1, 2 ) ;
#120 = PERSON_AND_ORGANIZATION ( #155, #52 ) ;
#121 = EDGE_CURVE ( 'NONE', #27, #80, #142, .T. ) ;
#122 = DIRECTION ( 'NONE',  ( 1.000000000000000000, 0.0000000000000000000, 0.0000000000000000000 ) ) ;
#123 =( NAMED_UNIT ( * ) SI_UNIT ( $, .STERADIAN. ) SOLID_ANGLE_UNIT ( ) );
#124 = DIRECTION ( 'NONE',  ( -0.0000000000000000000, -0.0000000000000000000, 1.000000000000000000 ) ) ;
#125 = LOCAL_TIME ( 11, 22, 14.00000000000000000, #127 ) ;
#126 = ORIENTED_EDGE ( 'NONE', *, *, #121, .T. ) ;
#127 = COORDINATED_UNIVERSAL_TIME_OFFSET ( 5, 0, .BEHIND. ) ;
#128 = EDGE_LOOP ( 'NONE', ( #54, #7 ) ) ;
#129 = EDGE_CURVE ( 'NONE', #80, #29, #63, .T. ) ;
#130 = CALENDAR_DATE ( 2017, 1, 2 ) ;
#131 = CARTESIAN_POINT ( 'NONE',  ( 12.50000000000000000, 0.0000000000000000000, 0.0000000000000000000 ) ) ;
#132 = LINE ( 'NONE', #131, #134 ) ;
#133 = COORDINATED_UNIVERSAL_TIME_OFFSET ( 5, 0, .BEHIND. ) ;
#134 = VECTOR ( 'NONE', #106, 1000.000000000000000 ) ;
#135 = DIRECTION ( 'NONE',  ( -0.0000000000000000000, -0.0000000000000000000, 1.000000000000000000 ) ) ;
#136 = APPROVAL_DATE_TIME ( #1, #100 ) ;
#137 = DIRECTION ( 'NONE',  ( 0.0000000000000000000, 0.0000000000000000000, 1.000000000000000000 ) ) ;
#138 = EDGE_CURVE ( 'NONE', #27, #41, #115, .T. ) ;
#139 = PERSON_AND_ORGANIZATION_ROLE ( 'design_supplier' ) ;
#140 = CARTESIAN_POINT ( 'NONE',  ( 0.0000000000000000000, 0.0000000000000000000, 0.0000000000000000000 ) ) ;
#141 = DIRECTION ( 'NONE',  ( -0.0000000000000000000, -0.0000000000000000000, 1.000000000000000000 ) ) ;
#142 = LINE ( 'NONE', #66, #99 ) ;
#143 = ORIENTED_EDGE ( 'NONE', *, *, #138, .T. ) ;
#144 = AXIS2_PLACEMENT_3D ( 'NONE', #118, #174, #108 ) ;
#145 = SHAPE_DEFINITION_REPRESENTATION ( #10, #40 ) ;
#146 = ORIENTED_EDGE ( 'NONE', *, *, #74, .T. ) ;
#147 = EDGE_CURVE ( 'NONE', #41, #27, #12, .T. ) ;
#148 = ADVANCED_FACE ( 'NONE', ( #57 ), #4, .F. ) ;
#149 = APPROVAL_PERSON_ORGANIZATION ( #171, #64, #97 ) ;
#150 = APPLICATION_CONTEXT ( 'configuration controlled 3d designs of mechanical parts and assemblies' ) ;
#151 = CARTESIAN_POINT ( 'NONE',  ( 0.0000000000000000000, 0.0000000000000000000, -2.299999999999999800 ) ) ;
#152 = APPROVAL_ROLE ( '' ) ;
#153 = DIRECTION ( 'NONE',  ( 1.000000000000000000, 0.0000000000000000000, 0.0000000000000000000 ) ) ;
#154 = AXIS2_PLACEMENT_3D ( 'NONE', #17, #69, #159 ) ;
#155 = PERSON ( 'UNSPECIFIED', 'UNSPECIFIED', 'UNSPECIFIED', ('UNSPECIFIED'), ('UNSPECIFIED'), ('UNSPECIFIED') ) ;
#156 = CC_DESIGN_PERSON_AND_ORGANIZATION_ASSIGNMENT ( #160, #139, ( #82 ) ) ;
#157 = ORIENTED_EDGE ( 'NONE', *, *, #138, .F. ) ;
#158 = DATE_AND_TIME ( #90, #125 ) ;
#159 = DIRECTION ( 'NONE',  ( 1.000000000000000000, 0.0000000000000000000, 0.0000000000000000000 ) ) ;
#160 = PERSON_AND_ORGANIZATION ( #155, #52 ) ;
#161 = EDGE_LOOP ( 'NONE', ( #48, #143, #146, #34 ) ) ;
#162 = CARTESIAN_POINT ( 'NONE',  ( -12.50000000000000000, 1.530808498934191500E-015, 0.0000000000000000000 ) ) ;
#163 = PERSON_AND_ORGANIZATION_ROLE ( 'creator' ) ;
#164 = APPROVAL_STATUS ( 'not_yet_approved' ) ;
#165 = PERSON_AND_ORGANIZATION_ROLE ( 'classification_officer' ) ;
#166 = DIRECTION ( 'NONE',  ( -0.0000000000000000000, -0.0000000000000000000, 1.000000000000000000 ) ) ;
#167 = CLOSED_SHELL ( 'NONE', ( #35, #45, #107, #148 ) ) ;
#168 = LOCAL_TIME ( 11, 22, 14.00000000000000000, #65 ) ;
#169 = AXIS2_PLACEMENT_3D ( 'NONE', #21, #22, #56 ) ;
#170 = FACE_OUTER_BOUND ( 'NONE', #109, .T. ) ;
#171 = PERSON_AND_ORGANIZATION ( #155, #52 ) ;
#172 = FACE_OUTER_BOUND ( 'NONE', #161, .T. ) ;
#173 = AXIS2_PLACEMENT_3D ( 'NONE', #43, #141, #98 ) ;
#174 = DIRECTION ( 'NONE',  ( -0.0000000000000000000, -0.0000000000000000000, 1.000000000000000000 ) ) ;
#175 = FACE_OUTER_BOUND ( 'NONE', #128, .T. ) ;
ENDSEC;
END-ISO-10303-21;
