ISO-10303-21;
HEADER;
FILE_DESCRIPTION (( 'STEP AP203' ),
    '1' );
FILE_NAME ('Web Model 65870.STEP',
    '2017-01-31T19:28:48',
    ( '' ),
    ( '' ),
    'SwSTEP 2.0',
    'SolidWorks 2016',
    '' );
FILE_SCHEMA (( 'CONFIG_CONTROL_DESIGN' ));
ENDSEC;

DATA;
#1 = UNCERTAINTY_MEASURE_WITH_UNIT (LENGTH_MEASURE( 1.000000000000000100E-005 ), #52, 'distance_accuracy_value', 'NONE');
#2 = DIRECTION ( 'NONE',  ( -0.0000000000000000000, -0.0000000000000000000, -1.000000000000000000 ) ) ;
#3 = PRODUCT_RELATED_PRODUCT_CATEGORY ( 'detail', '', ( #128 ) ) ;
#4 = DIRECTION ( 'NONE',  ( 0.0000000000000000000, 0.0000000000000000000, 1.000000000000000000 ) ) ;
#5 = PERSON_AND_ORGANIZATION ( #168, #131 ) ;
#6 = APPROVAL ( #41, 'UNSPECIFIED' ) ;
#7 = COORDINATED_UNIVERSAL_TIME_OFFSET ( 5, 0, .BEHIND. ) ;
#8 = CALENDAR_DATE ( 2017, 31, 1 ) ;
#9 = FACE_OUTER_BOUND ( 'NONE', #113, .T. ) ;
#10 = DIRECTION ( 'NONE',  ( 1.000000000000000000, 0.0000000000000000000, -0.0000000000000000000 ) ) ;
#11 =( NAMED_UNIT ( * ) PLANE_ANGLE_UNIT ( ) SI_UNIT ( $, .RADIAN. ) );
#12 = DIRECTION ( 'NONE',  ( 0.0000000000000000000, 0.0000000000000000000, 1.000000000000000000 ) ) ;
#13 = AXIS2_PLACEMENT_3D ( 'NONE', #72, #110, #10 ) ;
#14 = AXIS2_PLACEMENT_3D ( 'NONE', #82, #126, #124 ) ;
#15 = CYLINDRICAL_SURFACE ( 'NONE', #43, 2.500000000000000400 ) ;
#16 = DIRECTION ( 'NONE',  ( -1.000000000000000000, 0.0000000000000000000, 0.0000000000000000000 ) ) ;
#17 = LINE ( 'NONE', #30, #56 ) ;
#18 = VERTEX_POINT ( 'NONE', #115 ) ;
#19 = APPROVAL_PERSON_ORGANIZATION ( #127, #6, #122 ) ;
#20 = CC_DESIGN_APPROVAL ( #6, ( #109 ) ) ;
#21 = CC_DESIGN_PERSON_AND_ORGANIZATION_ASSIGNMENT ( #137, #121, ( #128 ) ) ;
#22 = SECURITY_CLASSIFICATION_LEVEL ( 'unclassified' ) ;
#23 = PRODUCT_DEFINITION_SHAPE ( 'NONE', 'NONE',  #109 ) ;
#24 = EDGE_CURVE ( 'NONE', #34, #18, #57, .T. ) ;
#25 = APPLICATION_PROTOCOL_DEFINITION ( 'international standard', 'config_control_design', 1994, #64 ) ;
#26 = PERSON_AND_ORGANIZATION ( #168, #131 ) ;
#27 = CC_DESIGN_DATE_AND_TIME_ASSIGNMENT ( #62, #138, ( #109 ) ) ;
#28 = DIRECTION ( 'NONE',  ( 1.000000000000000000, 0.0000000000000000000, -0.0000000000000000000 ) ) ;
#29 = MANIFOLD_SOLID_BREP ( 'Extrude1', #49 ) ;
#30 = CARTESIAN_POINT ( 'NONE',  ( -2.500000000000000400, 0.0000000000000000000, 1.000000000000000000 ) ) ;
#31 = ADVANCED_FACE ( 'NONE', ( #9 ), #32, .F. ) ;
#32 = PLANE ( 'NONE',  #150 ) ;
#33 = COORDINATED_UNIVERSAL_TIME_OFFSET ( 5, 0, .BEHIND. ) ;
#34 = VERTEX_POINT ( 'NONE', #130 ) ;
#35 = CALENDAR_DATE ( 2017, 31, 1 ) ;
#36 = CARTESIAN_POINT ( 'NONE',  ( 0.0000000000000000000, 0.0000000000000000000, 1.000000000000000000 ) ) ;
#37 = CC_DESIGN_APPROVAL ( #66, ( #143 ) ) ;
#38 = ORIENTED_EDGE ( 'NONE', *, *, #76, .T. ) ;
#39 = APPLICATION_CONTEXT ( 'configuration controlled 3d designs of mechanical parts and assemblies' ) ;
#40 = FACE_OUTER_BOUND ( 'NONE', #90, .T. ) ;
#41 = APPROVAL_STATUS ( 'not_yet_approved' ) ;
#42 = PERSON_AND_ORGANIZATION ( #168, #131 ) ;
#43 = AXIS2_PLACEMENT_3D ( 'NONE', #140, #2, #79 ) ;
#44 = DIRECTION ( 'NONE',  ( 0.0000000000000000000, 0.0000000000000000000, 1.000000000000000000 ) ) ;
#45 = COORDINATED_UNIVERSAL_TIME_OFFSET ( 5, 0, .BEHIND. ) ;
#46 = APPROVAL_DATE_TIME ( #114, #51 ) ;
#47 = CARTESIAN_POINT ( 'NONE',  ( -2.500000000000000400, 0.0000000000000000000, 1.000000000000000000 ) ) ;
#48 = ORIENTED_EDGE ( 'NONE', *, *, #162, .T. ) ;
#49 = CLOSED_SHELL ( 'NONE', ( #60, #148, #87, #31 ) ) ;
#50 = ORIENTED_EDGE ( 'NONE', *, *, #24, .F. ) ;
#51 = APPROVAL ( #166, 'UNSPECIFIED' ) ;
#52 =( LENGTH_UNIT ( ) NAMED_UNIT ( * ) SI_UNIT ( .MILLI., .METRE. ) );
#53 = APPROVAL_STATUS ( 'not_yet_approved' ) ;
#54 = PERSON_AND_ORGANIZATION_ROLE ( 'creator' ) ;
#55 = ORIENTED_EDGE ( 'NONE', *, *, #74, .F. ) ;
#56 = VECTOR ( 'NONE', #100, 1000.000000000000000 ) ;
#57 = CIRCLE ( 'NONE', #83, 2.500000000000000400 ) ;
#58 = DIRECTION ( 'NONE',  ( 0.0000000000000000000, 0.0000000000000000000, 1.000000000000000000 ) ) ;
#59 = CARTESIAN_POINT ( 'NONE',  ( 0.0000000000000000000, 0.0000000000000000000, 1.000000000000000000 ) ) ;
#60 = ADVANCED_FACE ( 'NONE', ( #85 ), #160, .T. ) ;
#61 = EDGE_CURVE ( 'NONE', #120, #88, #73, .T. ) ;
#62 = DATE_AND_TIME ( #91, #132 ) ;
#63 = PERSON_AND_ORGANIZATION_ROLE ( 'creator' ) ;
#64 = APPLICATION_CONTEXT ( 'configuration controlled 3d designs of mechanical parts and assemblies' ) ;
#65 = ADVANCED_BREP_SHAPE_REPRESENTATION ( 'Web Model 65870', ( #29, #14 ), #80 ) ;
#66 = APPROVAL ( #53, 'UNSPECIFIED' ) ;
#67 = DIRECTION ( 'NONE',  ( 0.0000000000000000000, 0.0000000000000000000, 1.000000000000000000 ) ) ;
#68 = EDGE_LOOP ( 'NONE', ( #175, #159, #48, #55 ) ) ;
#69 = PERSON_AND_ORGANIZATION_ROLE ( 'classification_officer' ) ;
#70 = ORIENTED_EDGE ( 'NONE', *, *, #136, .F. ) ;
#71 = AXIS2_PLACEMENT_3D ( 'NONE', #95, #12, #92 ) ;
#72 = CARTESIAN_POINT ( 'NONE',  ( 0.0000000000000000000, 0.0000000000000000000, 1.000000000000000000 ) ) ;
#73 = CIRCLE ( 'NONE', #142, 2.500000000000000400 ) ;
#74 = EDGE_CURVE ( 'NONE', #88, #34, #17, .T. ) ;
#75 = LOCAL_TIME ( 14, 28, 48.00000000000000000, #7 ) ;
#76 = EDGE_CURVE ( 'NONE', #88, #120, #146, .T. ) ;
#77 = PERSON_AND_ORGANIZATION ( #168, #131 ) ;
#78 = APPROVAL_PERSON_ORGANIZATION ( #42, #51, #81 ) ;
#79 = DIRECTION ( 'NONE',  ( -1.000000000000000000, 0.0000000000000000000, 0.0000000000000000000 ) ) ;
#80 =( GEOMETRIC_REPRESENTATION_CONTEXT ( 3 ) GLOBAL_UNCERTAINTY_ASSIGNED_CONTEXT ( ( #1 ) ) GLOBAL_UNIT_ASSIGNED_CONTEXT ( ( #52, #11, #163 ) ) REPRESENTATION_CONTEXT ( 'NONE', 'WORKASPACE' ) );
#81 = APPROVAL_ROLE ( '' ) ;
#82 = CARTESIAN_POINT ( 'NONE',  ( 0.0000000000000000000, 0.0000000000000000000, 0.0000000000000000000 ) ) ;
#83 = AXIS2_PLACEMENT_3D ( 'NONE', #155, #44, #86 ) ;
#84 = APPROVAL_DATE_TIME ( #158, #6 ) ;
#85 = FACE_OUTER_BOUND ( 'NONE', #68, .T. ) ;
#86 = DIRECTION ( 'NONE',  ( 1.000000000000000000, 0.0000000000000000000, 0.0000000000000000000 ) ) ;
#87 = ADVANCED_FACE ( 'NONE', ( #169 ), #170, .T. ) ;
#88 = VERTEX_POINT ( 'NONE', #47 ) ;
#89 = CARTESIAN_POINT ( 'NONE',  ( 2.500000000000000400, 3.061616997868383600E-016, 1.000000000000000000 ) ) ;
#90 = EDGE_LOOP ( 'NONE', ( #70, #118, #111, #171 ) ) ;
#91 = CALENDAR_DATE ( 2017, 31, 1 ) ;
#92 = DIRECTION ( 'NONE',  ( 1.000000000000000000, 0.0000000000000000000, 0.0000000000000000000 ) ) ;
#93 = APPROVAL_ROLE ( '' ) ;
#94 = CC_DESIGN_SECURITY_CLASSIFICATION ( #102, ( #143 ) ) ;
#95 = CARTESIAN_POINT ( 'NONE',  ( 0.0000000000000000000, 0.0000000000000000000, 0.0000000000000000000 ) ) ;
#96 = LOCAL_TIME ( 14, 28, 48.00000000000000000, #134 ) ;
#97 = CALENDAR_DATE ( 2017, 31, 1 ) ;
#98 = DIRECTION ( 'NONE',  ( -0.0000000000000000000, -0.0000000000000000000, -1.000000000000000000 ) ) ;
#99 = DIRECTION ( 'NONE',  ( 1.000000000000000000, 0.0000000000000000000, 0.0000000000000000000 ) ) ;
#100 = DIRECTION ( 'NONE',  ( -0.0000000000000000000, -0.0000000000000000000, -1.000000000000000000 ) ) ;
#101 = LOCAL_TIME ( 14, 28, 48.00000000000000000, #149 ) ;
#102 = SECURITY_CLASSIFICATION ( '', '', #22 ) ;
#103 = DESIGN_CONTEXT ( 'detailed design', #64, 'design' ) ;
#104 = CC_DESIGN_PERSON_AND_ORGANIZATION_ASSIGNMENT ( #174, #69, ( #102 ) ) ;
#105 = LINE ( 'NONE', #165, #123 ) ;
#106 = ORIENTED_EDGE ( 'NONE', *, *, #61, .T. ) ;
#107 = DIRECTION ( 'NONE',  ( -0.0000000000000000000, -0.0000000000000000000, -1.000000000000000000 ) ) ;
#108 = CC_DESIGN_PERSON_AND_ORGANIZATION_ASSIGNMENT ( #156, #63, ( #109 ) ) ;
#109 = PRODUCT_DEFINITION ( 'UNKNOWN', '', #143, #103 ) ;
#110 = DIRECTION ( 'NONE',  ( 0.0000000000000000000, 0.0000000000000000000, 1.000000000000000000 ) ) ;
#111 = ORIENTED_EDGE ( 'NONE', *, *, #74, .T. ) ;
#112 = DIRECTION ( 'NONE',  ( 1.000000000000000000, 0.0000000000000000000, 0.0000000000000000000 ) ) ;
#113 = EDGE_LOOP ( 'NONE', ( #50, #147 ) ) ;
#114 = DATE_AND_TIME ( #151, #75 ) ;
#115 = CARTESIAN_POINT ( 'NONE',  ( 2.500000000000000400, 3.061616997868383600E-016, 0.0000000000000000000 ) ) ;
#116 = APPROVAL_DATE_TIME ( #153, #66 ) ;
#117 = CARTESIAN_POINT ( 'NONE',  ( 0.0000000000000000000, 0.0000000000000000000, 0.0000000000000000000 ) ) ;
#118 = ORIENTED_EDGE ( 'NONE', *, *, #76, .F. ) ;
#119 = DATE_AND_TIME ( #35, #96 ) ;
#120 = VERTEX_POINT ( 'NONE', #89 ) ;
#121 = PERSON_AND_ORGANIZATION_ROLE ( 'design_owner' ) ;
#122 = APPROVAL_ROLE ( '' ) ;
#123 = VECTOR ( 'NONE', #107, 1000.000000000000000 ) ;
#124 = DIRECTION ( 'NONE',  ( 1.000000000000000000, 0.0000000000000000000, 0.0000000000000000000 ) ) ;
#125 = CC_DESIGN_DATE_AND_TIME_ASSIGNMENT ( #119, #164, ( #102 ) ) ;
#126 = DIRECTION ( 'NONE',  ( 0.0000000000000000000, 0.0000000000000000000, 1.000000000000000000 ) ) ;
#127 = PERSON_AND_ORGANIZATION ( #168, #131 ) ;
#128 = PRODUCT ( 'Web Model 65870', 'Web Model 65870', '', ( #152 ) ) ;
#129 = LOCAL_TIME ( 14, 28, 48.00000000000000000, #33 ) ;
#130 = CARTESIAN_POINT ( 'NONE',  ( -2.500000000000000400, 0.0000000000000000000, 0.0000000000000000000 ) ) ;
#131 = ORGANIZATION ( 'UNSPECIFIED', 'UNSPECIFIED', '' ) ;
#132 = LOCAL_TIME ( 14, 28, 48.00000000000000000, #45 ) ;
#133 = CC_DESIGN_PERSON_AND_ORGANIZATION_ASSIGNMENT ( #77, #54, ( #143 ) ) ;
#134 = COORDINATED_UNIVERSAL_TIME_OFFSET ( 5, 0, .BEHIND. ) ;
#135 = APPLICATION_PROTOCOL_DEFINITION ( 'international standard', 'config_control_design', 1994, #39 ) ;
#136 = EDGE_CURVE ( 'NONE', #120, #18, #105, .T. ) ;
#137 = PERSON_AND_ORGANIZATION ( #168, #131 ) ;
#138 = DATE_TIME_ROLE ( 'creation_date' ) ;
#139 = SHAPE_DEFINITION_REPRESENTATION ( #23, #65 ) ;
#140 = CARTESIAN_POINT ( 'NONE',  ( 0.0000000000000000000, 0.0000000000000000000, 1.000000000000000000 ) ) ;
#141 = APPROVAL_PERSON_ORGANIZATION ( #5, #66, #93 ) ;
#142 = AXIS2_PLACEMENT_3D ( 'NONE', #59, #58, #99 ) ;
#143 = PRODUCT_DEFINITION_FORMATION_WITH_SPECIFIED_SOURCE ( 'ANY', '', #128, .NOT_KNOWN. ) ;
#144 = EDGE_LOOP ( 'NONE', ( #38, #106 ) ) ;
#145 = CC_DESIGN_APPROVAL ( #51, ( #102 ) ) ;
#146 = CIRCLE ( 'NONE', #157, 2.500000000000000400 ) ;
#147 = ORIENTED_EDGE ( 'NONE', *, *, #162, .F. ) ;
#148 = ADVANCED_FACE ( 'NONE', ( #40 ), #15, .T. ) ;
#149 = COORDINATED_UNIVERSAL_TIME_OFFSET ( 5, 0, .BEHIND. ) ;
#150 = AXIS2_PLACEMENT_3D ( 'NONE', #117, #4, #28 ) ;
#151 = CALENDAR_DATE ( 2017, 31, 1 ) ;
#152 = MECHANICAL_CONTEXT ( 'NONE', #39, 'mechanical' ) ;
#153 = DATE_AND_TIME ( #8, #101 ) ;
#154 = PERSON_AND_ORGANIZATION_ROLE ( 'design_supplier' ) ;
#155 = CARTESIAN_POINT ( 'NONE',  ( 0.0000000000000000000, 0.0000000000000000000, 0.0000000000000000000 ) ) ;
#156 = PERSON_AND_ORGANIZATION ( #168, #131 ) ;
#157 = AXIS2_PLACEMENT_3D ( 'NONE', #36, #67, #112 ) ;
#158 = DATE_AND_TIME ( #97, #129 ) ;
#159 = ORIENTED_EDGE ( 'NONE', *, *, #136, .T. ) ;
#160 = CYLINDRICAL_SURFACE ( 'NONE', #167, 2.500000000000000400 ) ;
#161 = CIRCLE ( 'NONE', #71, 2.500000000000000400 ) ;
#162 = EDGE_CURVE ( 'NONE', #18, #34, #161, .T. ) ;
#163 =( NAMED_UNIT ( * ) SI_UNIT ( $, .STERADIAN. ) SOLID_ANGLE_UNIT ( ) );
#164 = DATE_TIME_ROLE ( 'classification_date' ) ;
#165 = CARTESIAN_POINT ( 'NONE',  ( 2.500000000000000400, 3.061616997868383600E-016, 1.000000000000000000 ) ) ;
#166 = APPROVAL_STATUS ( 'not_yet_approved' ) ;
#167 = AXIS2_PLACEMENT_3D ( 'NONE', #172, #98, #16 ) ;
#168 = PERSON ( 'UNSPECIFIED', 'UNSPECIFIED', 'UNSPECIFIED', ('UNSPECIFIED'), ('UNSPECIFIED'), ('UNSPECIFIED') ) ;
#169 = FACE_OUTER_BOUND ( 'NONE', #144, .T. ) ;
#170 = PLANE ( 'NONE',  #13 ) ;
#171 = ORIENTED_EDGE ( 'NONE', *, *, #24, .T. ) ;
#172 = CARTESIAN_POINT ( 'NONE',  ( 0.0000000000000000000, 0.0000000000000000000, 1.000000000000000000 ) ) ;
#173 = CC_DESIGN_PERSON_AND_ORGANIZATION_ASSIGNMENT ( #26, #154, ( #143 ) ) ;
#174 = PERSON_AND_ORGANIZATION ( #168, #131 ) ;
#175 = ORIENTED_EDGE ( 'NONE', *, *, #61, .F. ) ;
ENDSEC;
END-ISO-10303-21;
