ISO-10303-21;
HEADER;
FILE_DESCRIPTION (( 'STEP AP203' ),
    '1' );
FILE_NAME ('68533_68545.step',
    '2017-07-24T14:49:50',
    ( '' ),
    ( '' ),
    'SwSTEP 2.0',
    'SolidWorks 2016',
    '' );
FILE_SCHEMA (( 'CONFIG_CONTROL_DESIGN' ));
ENDSEC;

DATA;
#1 = APPROVAL_PERSON_ORGANIZATION ( #174, #247, #110 ) ;
#2 = LINE ( 'NONE', #175, #69 ) ;
#3 = CARTESIAN_POINT ( 'NONE',  ( -3.051327766653533900E-016, 3.535533905932718700, 0.0000000000000000000 ) ) ;
#4 = PLANE ( 'NONE',  #229 ) ;
#5 = PERSON_AND_ORGANIZATION ( #176, #160 ) ;
#6 = EDGE_LOOP ( 'NONE', ( #206, #151, #200, #282 ) ) ;
#7 = PRODUCT ( '68533_68545', '68533_68545', '', ( #252 ) ) ;
#8 = SECURITY_CLASSIFICATION ( '', '', #272 ) ;
#9 = ADVANCED_FACE ( 'NONE', ( #339 ), #88, .T. ) ;
#10 = DIRECTION ( 'NONE',  ( 0.0000000000000000000, 0.0000000000000000000, 1.000000000000000000 ) ) ;
#11 = CALENDAR_DATE ( 2017, 24, 7 ) ;
#12 = LINE ( 'NONE', #119, #231 ) ;
#13 = CARTESIAN_POINT ( 'NONE',  ( 0.0000000000000000000, 0.0000000000000000000, 0.0000000000000000000 ) ) ;
#14 = DIRECTION ( 'NONE',  ( 1.000000000000000000, 0.0000000000000000000, -0.0000000000000000000 ) ) ;
#15 = CARTESIAN_POINT ( 'NONE',  ( -3.535533905932756400, 0.0000000000000000000, -5.000000000000000000 ) ) ;
#16 = CC_DESIGN_PERSON_AND_ORGANIZATION_ASSIGNMENT ( #343, #75, ( #281 ) ) ;
#17 = VECTOR ( 'NONE', #269, 1000.000000000000000 ) ;
#18 = PERSON_AND_ORGANIZATION ( #176, #160 ) ;
#19 = ORIENTED_EDGE ( 'NONE', *, *, #158, .F. ) ;
#20 = DIRECTION ( 'NONE',  ( 0.7071067811865438000, 0.7071067811865513500, 5.551115123125740800E-017 ) ) ;
#21 = APPROVAL_ROLE ( '' ) ;
#22 = CC_DESIGN_SECURITY_CLASSIFICATION ( #8, ( #360 ) ) ;
#23 = APPROVAL_STATUS ( 'not_yet_approved' ) ;
#24 = DATE_AND_TIME ( #223, #42 ) ;
#25 = APPLICATION_PROTOCOL_DEFINITION ( 'international standard', 'config_control_design', 1994, #156 ) ;
#26 = VECTOR ( 'NONE', #45, 1000.000000000000000 ) ;
#27 = CC_DESIGN_PERSON_AND_ORGANIZATION_ASSIGNMENT ( #186, #333, ( #318 ) ) ;
#28 = PERSON_AND_ORGANIZATION_ROLE ( 'creator' ) ;
#29 = SECURITY_CLASSIFICATION ( '', '', #129 ) ;
#30 = COORDINATED_UNIVERSAL_TIME_OFFSET ( 5, 0, .BEHIND. ) ;
#31 = COORDINATED_UNIVERSAL_TIME_OFFSET ( 5, 0, .BEHIND. ) ;
#32 = PRODUCT_RELATED_PRODUCT_CATEGORY ( 'detail', '', ( #7 ) ) ;
#33 = ADVANCED_FACE ( 'NONE', ( #258 ), #4, .T. ) ;
#34 = CALENDAR_DATE ( 2017, 24, 7 ) ;
#35 = DATE_AND_TIME ( #34, #112 ) ;
#36 = ORIENTED_EDGE ( 'NONE', *, *, #306, .F. ) ;
#37 = APPROVAL ( #355, 'UNSPECIFIED' ) ;
#38 = COORDINATED_UNIVERSAL_TIME_OFFSET ( 5, 0, .BEHIND. ) ;
#39 = CARTESIAN_POINT ( 'NONE',  ( 3.535533905932756800, 0.0000000000000000000, -5.000000000000000000 ) ) ;
#40 = CARTESIAN_POINT ( 'NONE',  ( -1.765846843364976700E-016, 3.535533905932718700, -5.000000000000000000 ) ) ;
#41 = CC_DESIGN_DATE_AND_TIME_ASSIGNMENT ( #84, #183, ( #331 ) ) ;
#42 = LOCAL_TIME ( 10, 49, 50.00000000000000000, #116 ) ;
#43 = FACE_OUTER_BOUND ( 'NONE', #218, .T. ) ;
#44 = CARTESIAN_POINT ( 'NONE',  ( 0.0000000000000000000, 0.0000000000000000000, 0.0000000000000000000 ) ) ;
#45 = DIRECTION ( 'NONE',  ( 1.000000000000000000, 0.0000000000000000000, 0.0000000000000000000 ) ) ;
#46 = APPROVAL_ROLE ( '' ) ;
#47 = DATE_TIME_ROLE ( 'creation_date' ) ;
#48 = COORDINATED_UNIVERSAL_TIME_OFFSET ( 5, 0, .BEHIND. ) ;
#49 = EDGE_CURVE ( 'NONE', #155, #327, #12, .T. ) ;
#50 = SHAPE_DEFINITION_REPRESENTATION ( #95, #86 ) ;
#51 = DIRECTION ( 'NONE',  ( -3.925231146709522300E-017, -6.734631938767742300E-018, 1.000000000000000000 ) ) ;
#52 = APPLICATION_CONTEXT ( 'configuration controlled 3d designs of mechanical parts and assemblies' ) ;
#53 = CALENDAR_DATE ( 2017, 24, 7 ) ;
#54 = FACE_OUTER_BOUND ( 'NONE', #62, .T. ) ;
#55 = EDGE_LOOP ( 'NONE', ( #345, #225, #320 ) ) ;
#56 = ADVANCED_BREP_SHAPE_REPRESENTATION ( '', ( #105, #144 ), #270 ) ;
#57 = PRODUCT_DEFINITION ( 'UNKNOWN', '', #236, #264 ) ;
#58 = COORDINATED_UNIVERSAL_TIME_OFFSET ( 5, 0, .BEHIND. ) ;
#59 = COORDINATED_UNIVERSAL_TIME_OFFSET ( 5, 0, .BEHIND. ) ;
#60 = DATE_AND_TIME ( #332, #149 ) ;
#61 = LINE ( 'NONE', #292, #81 ) ;
#62 = EDGE_LOOP ( 'NONE', ( #234, #19, #316, #164 ) ) ;
#63 = LOCAL_TIME ( 10, 49, 50.00000000000000000, #30 ) ;
#64 = APPROVAL_PERSON_ORGANIZATION ( #138, #37, #322 ) ;
#65 = EDGE_LOOP ( 'NONE', ( #146, #70, #126, #76 ) ) ;
#66 = DIRECTION ( 'NONE',  ( -0.7071067811865513500, 0.7071067811865436900, 0.0000000000000000000 ) ) ;
#67 = DIRECTION ( 'NONE',  ( -0.7071067811865438000, 0.7071067811865513500, 0.0000000000000000000 ) ) ;
#68 = PERSON_AND_ORGANIZATION ( #176, #160 ) ;
#69 = VECTOR ( 'NONE', #10, 1000.000000000000000 ) ;
#70 = ORIENTED_EDGE ( 'NONE', *, *, #202, .F. ) ;
#71 = APPLICATION_CONTEXT ( 'configuration controlled 3d designs of mechanical parts and assemblies' ) ;
#72 = AXIS2_PLACEMENT_3D ( 'NONE', #3, #201, #147 ) ;
#73 = ORGANIZATION ( 'NAUO-ORG2', 'UNSPECIFIED', 'UNSPECIFIED' ) ;
#74 = CALENDAR_DATE ( 2017, 24, 7 ) ;
#75 = PERSON_AND_ORGANIZATION_ROLE ( 'creator' ) ;
#76 = ORIENTED_EDGE ( 'NONE', *, *, #158, .T. ) ;
#77 = APPLICATION_PROTOCOL_DEFINITION ( 'international standard', 'config_control_design', 1994, #52 ) ;
#78 = DIRECTION ( 'NONE',  ( -5.551115123125782700E-017, -2.299347170293050300E-017, 1.000000000000000000 ) ) ;
#79 = PERSON_AND_ORGANIZATION_ROLE ( 'creator' ) ;
#80 = COORDINATED_UNIVERSAL_TIME_OFFSET ( 5, 0, .BEHIND. ) ;
#81 = VECTOR ( 'NONE', #211, 1000.000000000000000 ) ;
#82 = CC_DESIGN_APPROVAL ( #100, ( #260 ) ) ;
#83 = SHAPE_REPRESENTATION ( '68533_68545', ( #184, #121, #358 ), #277 ) ;
#84 = DATE_AND_TIME ( #304, #243 ) ;
#85 = AXIS2_PLACEMENT_3D ( 'NONE', #44, #275, #191 ) ;
#86 = SHAPE_REPRESENTATION ( '32328_DETAIL A', ( #144 ), #270 ) ;
#87 = PERSON_AND_ORGANIZATION ( #176, #160 ) ;
#88 = PLANE ( 'NONE',  #72 ) ;
#89 = PLANE ( 'NONE',  #314 ) ;
#90 = VECTOR ( 'NONE', #346, 1000.000000000000000 ) ;
#91 = CALENDAR_DATE ( 2017, 24, 7 ) ;
#92 = VERTEX_POINT ( 'NONE', #177 ) ;
#93 = CC_DESIGN_PERSON_AND_ORGANIZATION_ASSIGNMENT ( #187, #295, ( #57 ) ) ;
#94 = ADVANCED_FACE ( 'NONE', ( #43 ), #89, .F. ) ;
#95 = PRODUCT_DEFINITION_SHAPE ( 'NONE', 'NONE',  #57 ) ;
#96 = CARTESIAN_POINT ( 'NONE',  ( 3.535533905932756800, 0.0000000000000000000, -5.000000000000000000 ) ) ;
#97 = COORDINATED_UNIVERSAL_TIME_OFFSET ( 5, 0, .BEHIND. ) ;
#98 = PLANE ( 'NONE',  #255 ) ;
#99 =( LENGTH_UNIT ( ) NAMED_UNIT ( * ) SI_UNIT ( .MILLI., .METRE. ) );
#100 = APPROVAL ( #127, 'UNSPECIFIED' ) ;
#101 = CONTEXT_DEPENDENT_SHAPE_REPRESENTATION ( #279, #198 ) ;
#102 = LINE ( 'NONE', #241, #17 ) ;
#103 = VERTEX_POINT ( 'NONE', #96 ) ;
#104 = APPROVAL_ROLE ( '' ) ;
#105 = MANIFOLD_SOLID_BREP ( 'Extrude1', #136 ) ;
#106 = DATE_TIME_ROLE ( 'classification_date' ) ;
#107 = EDGE_CURVE ( 'NONE', #327, #313, #209, .T. ) ;
#108 = SHAPE_DEFINITION_REPRESENTATION ( #359, #83 ) ;
#109 = PERSON_AND_ORGANIZATION_ROLE ( 'classification_officer' ) ;
#110 = APPROVAL_ROLE ( '' ) ;
#111 = DESIGN_CONTEXT ( 'detailed design', #71, 'design' ) ;
#112 = LOCAL_TIME ( 10, 49, 50.00000000000000000, #38 ) ;
#113 = DATE_TIME_ROLE ( 'classification_date' ) ;
#114 = APPROVAL_PERSON_ORGANIZATION ( #186, #216, #330 ) ;
#115 = DATE_AND_TIME ( #120, #351 ) ;
#116 = COORDINATED_UNIVERSAL_TIME_OFFSET ( 5, 0, .BEHIND. ) ;
#117 = APPROVAL ( #214, 'UNSPECIFIED' ) ;
#118 = LINE ( 'NONE', #40, #142 ) ;
#119 = CARTESIAN_POINT ( 'NONE',  ( -1.765846843364976700E-016, 3.535533905932718700, 0.0000000000000000000 ) ) ;
#120 = CALENDAR_DATE ( 2017, 24, 7 ) ;
#121 = AXIS2_PLACEMENT_3D ( 'NONE', #249, #78, #20 ) ;
#122 = DIRECTION ( 'NONE',  ( -0.7071067811865513500, -0.7071067811865438000, 0.0000000000000000000 ) ) ;
#123 = CARTESIAN_POINT ( 'NONE',  ( 0.0000000000000000000, 0.0000000000000000000, 0.0000000000000000000 ) ) ;
#124 = APPROVAL_PERSON_ORGANIZATION ( #278, #128, #131 ) ;
#125 = DIRECTION ( 'NONE',  ( 1.000000000000000000, 0.0000000000000000000, 0.0000000000000000000 ) ) ;
#126 = ORIENTED_EDGE ( 'NONE', *, *, #306, .T. ) ;
#127 = APPROVAL_STATUS ( 'not_yet_approved' ) ;
#128 = APPROVAL ( #222, 'UNSPECIFIED' ) ;
#129 = SECURITY_CLASSIFICATION_LEVEL ( 'unclassified' ) ;
#130 = DATE_AND_TIME ( #53, #199 ) ;
#131 = APPROVAL_ROLE ( '' ) ;
#132 = APPROVAL_STATUS ( 'not_yet_approved' ) ;
#133 = MECHANICAL_CONTEXT ( 'NONE', #52, 'mechanical' ) ;
#134 = CC_DESIGN_APPROVAL ( #334, ( #8 ) ) ;
#135 = VECTOR ( 'NONE', #66, 1000.000000000000000 ) ;
#136 = CLOSED_SHELL ( 'NONE', ( #203, #33, #139, #94, #9 ) ) ;
#137 = CC_DESIGN_PERSON_AND_ORGANIZATION_ASSIGNMENT ( #141, #159, ( #7 ) ) ;
#138 = PERSON_AND_ORGANIZATION ( #176, #160 ) ;
#139 = ADVANCED_FACE ( 'NONE', ( #54 ), #98, .T. ) ;
#140 = CC_DESIGN_PERSON_AND_ORGANIZATION_ASSIGNMENT ( #87, #299, ( #281 ) ) ;
#141 = PERSON_AND_ORGANIZATION ( #176, #160 ) ;
#142 = VECTOR ( 'NONE', #342, 1000.000000000000000 ) ;
#143 = DATE_AND_TIME ( #172, #153 ) ;
#144 = AXIS2_PLACEMENT_3D ( 'NONE', #123, #294, #125 ) ;
#145 = COORDINATED_UNIVERSAL_TIME_OFFSET ( 5, 0, .BEHIND. ) ;
#146 = ORIENTED_EDGE ( 'NONE', *, *, #179, .F. ) ;
#147 = DIRECTION ( 'NONE',  ( 1.000000000000000000, 0.0000000000000000000, -0.0000000000000000000 ) ) ;
#148 = CARTESIAN_POINT ( 'NONE',  ( 3.535533905932756800, 0.0000000000000000000, -5.000000000000000000 ) ) ;
#149 = LOCAL_TIME ( 10, 49, 50.00000000000000000, #97 ) ;
#150 = PRODUCT_DEFINITION_SHAPE ( 'NONE', 'NONE',  #360 ) ;
#151 = ORIENTED_EDGE ( 'NONE', *, *, #293, .F. ) ;
#152 = DIRECTION ( 'NONE',  ( 0.0000000000000000000, 0.0000000000000000000, 1.000000000000000000 ) ) ;
#153 = LOCAL_TIME ( 10, 49, 50.00000000000000000, #31 ) ;
#154 = PERSON_AND_ORGANIZATION_ROLE ( 'design_supplier' ) ;
#155 = VERTEX_POINT ( 'NONE', #178 ) ;
#156 = APPLICATION_CONTEXT ( 'configuration controlled 3d designs of mechanical parts and assemblies' ) ;
#157 = PERSON_AND_ORGANIZATION_ROLE ( 'classification_officer' ) ;
#158 = EDGE_CURVE ( 'NONE', #92, #155, #268, .T. ) ;
#159 = PERSON_AND_ORGANIZATION_ROLE ( 'design_owner' ) ;
#160 = ORGANIZATION ( 'UNSPECIFIED', 'UNSPECIFIED', '' ) ;
#161 = DATE_TIME_ROLE ( 'creation_date' ) ;
#162 = LOCAL_TIME ( 10, 49, 50.00000000000000000, #58 ) ;
#163 = CALENDAR_DATE ( 2017, 24, 7 ) ;
#164 = ORIENTED_EDGE ( 'NONE', *, *, #293, .T. ) ;
#165 = SECURITY_CLASSIFICATION_LEVEL ( 'unclassified' ) ;
#166 = CC_DESIGN_DATE_AND_TIME_ASSIGNMENT ( #250, #161, ( #57 ) ) ;
#167 = COORDINATED_UNIVERSAL_TIME_OFFSET ( 5, 0, .BEHIND. ) ;
#168 = CC_DESIGN_PERSON_AND_ORGANIZATION_ASSIGNMENT ( #350, #28, ( #236 ) ) ;
#169 = CONTEXT_DEPENDENT_SHAPE_REPRESENTATION ( #352, #150 ) ;
#170 = VERTEX_POINT ( 'NONE', #347 ) ;
#171 = CC_DESIGN_SECURITY_CLASSIFICATION ( #318, ( #361 ) ) ;
#172 = CALENDAR_DATE ( 2017, 24, 7 ) ;
#173 = EDGE_CURVE ( 'NONE', #170, #103, #251, .T. ) ;
#174 = PERSON_AND_ORGANIZATION ( #176, #160 ) ;
#175 = CARTESIAN_POINT ( 'NONE',  ( -3.535533905932756400, 0.0000000000000000000, -5.000000000000000000 ) ) ;
#176 = PERSON ( 'UNSPECIFIED', 'UNSPECIFIED', 'UNSPECIFIED', ('UNSPECIFIED'), ('UNSPECIFIED'), ('UNSPECIFIED') ) ;
#177 = CARTESIAN_POINT ( 'NONE',  ( -1.765846843364976700E-016, 3.535533905932718700, -5.000000000000000000 ) ) ;
#178 = CARTESIAN_POINT ( 'NONE',  ( -1.765846843364976700E-016, 3.535533905932718700, 0.0000000000000000000 ) ) ;
#179 = EDGE_CURVE ( 'NONE', #313, #155, #102, .T. ) ;
#180 = DATE_AND_TIME ( #267, #230 ) ;
#181 = SHAPE_REPRESENTATION_RELATIONSHIP ( 'NONE' , 'NONE' ,  #86, #56 ) ;
#182 =( NAMED_UNIT ( * ) PLANE_ANGLE_UNIT ( ) SI_UNIT ( $, .RADIAN. ) );
#183 = DATE_TIME_ROLE ( 'classification_date' ) ;
#184 = AXIS2_PLACEMENT_3D ( 'NONE', #13, #276, #188 ) ;
#185 = DATE_TIME_ROLE ( 'classification_date' ) ;
#186 = PERSON_AND_ORGANIZATION ( #263, #73 ) ;
#187 = PERSON_AND_ORGANIZATION ( #176, #160 ) ;
#188 = DIRECTION ( 'NONE',  ( 1.000000000000000000, 0.0000000000000000000, 0.0000000000000000000 ) ) ;
#189 = ORIENTED_EDGE ( 'NONE', *, *, #232, .F. ) ;
#190 = APPLICATION_PROTOCOL_DEFINITION ( 'international standard', 'config_control_design', 1994, #219 ) ;
#191 = DIRECTION ( 'NONE',  ( 1.000000000000000000, 0.0000000000000000000, 0.0000000000000000000 ) ) ;
#192 = APPROVAL_DATE_TIME ( #300, #353 ) ;
#193 = CC_DESIGN_APPROVAL ( #117, ( #331 ) ) ;
#194 = PRODUCT_RELATED_PRODUCT_CATEGORY ( 'detail', '', ( #289 ) ) ;
#195 = LOCAL_TIME ( 10, 49, 50.00000000000000000, #145 ) ;
#196 = APPROVAL_DATE_TIME ( #60, #247 ) ;
#197 = CC_DESIGN_PERSON_AND_ORGANIZATION_ASSIGNMENT ( #319, #79, ( #260 ) ) ;
#198 = PRODUCT_DEFINITION_SHAPE ( 'NONE', 'NONE',  #361 ) ;
#199 = LOCAL_TIME ( 10, 49, 50.00000000000000000, #238 ) ;
#200 = ORIENTED_EDGE ( 'NONE', *, *, #173, .T. ) ;
#201 = DIRECTION ( 'NONE',  ( 0.0000000000000000000, 0.0000000000000000000, 1.000000000000000000 ) ) ;
#202 = EDGE_CURVE ( 'NONE', #103, #313, #61, .T. ) ;
#203 = ADVANCED_FACE ( 'NONE', ( #308 ), #315, .T. ) ;
#204 = CC_DESIGN_APPROVAL ( #353, ( #29 ) ) ;
#205 = PERSON_AND_ORGANIZATION ( #176, #160 ) ;
#206 = ORIENTED_EDGE ( 'NONE', *, *, #107, .F. ) ;
#207 = PERSON ( 'NAUO-PER1', 'UNSPECIFIED', 'UNSPECIFIED', ('UNSPECIFIED'), ('UNSPECIFIED'), ('UNSPECIFIED') ) ;
#208 = COORDINATED_UNIVERSAL_TIME_OFFSET ( 5, 0, .BEHIND. ) ;
#209 = LINE ( 'NONE', #288, #90 ) ;
#210 = CARTESIAN_POINT ( 'NONE',  ( 3.535533905932756800, 0.0000000000000000000, 0.0000000000000000000 ) ) ;
#211 = DIRECTION ( 'NONE',  ( 0.0000000000000000000, 0.0000000000000000000, 1.000000000000000000 ) ) ;
#212 = CC_DESIGN_SECURITY_CLASSIFICATION ( #331, ( #236 ) ) ;
#213 = CARTESIAN_POINT ( 'NONE',  ( -1.765846843364976700E-016, 3.535533905932718700, -5.000000000000000000 ) ) ;
#214 = APPROVAL_STATUS ( 'not_yet_approved' ) ;
#215 = LOCAL_TIME ( 10, 49, 50.00000000000000000, #59 ) ;
#216 = APPROVAL ( #302, 'UNKNOWN' ) ;
#217 = ORGANIZATION ( 'NAUO-ORG1', 'UNSPECIFIED', 'UNSPECIFIED' ) ;
#218 = EDGE_LOOP ( 'NONE', ( #36, #246, #189 ) ) ;
#219 = APPLICATION_CONTEXT ( 'configuration controlled 3d designs of mechanical parts and assemblies' ) ;
#220 =( LENGTH_UNIT ( ) NAMED_UNIT ( * ) SI_UNIT ( .MILLI., .METRE. ) );
#221 = CC_DESIGN_SECURITY_CLASSIFICATION ( #29, ( #281 ) ) ;
#222 = APPROVAL_STATUS ( 'not_yet_approved' ) ;
#223 = CALENDAR_DATE ( 2017, 24, 7 ) ;
#224 = CC_DESIGN_DATE_AND_TIME_ASSIGNMENT ( #130, #106, ( #29 ) ) ;
#225 = ORIENTED_EDGE ( 'NONE', *, *, #49, .T. ) ;
#226 = DATE_AND_TIME ( #74, #195 ) ;
#227 = LINE ( 'NONE', #39, #135 ) ;
#228 = ITEM_DEFINED_TRANSFORMATION ( 'NONE', 'NONE', #121,  #144 ) ;
#229 = AXIS2_PLACEMENT_3D ( 'NONE', #285, #259, #340 ) ;
#230 = LOCAL_TIME ( 10, 49, 50.00000000000000000, #338 ) ;
#231 = VECTOR ( 'NONE', #310, 1000.000000000000000 ) ;
#232 = EDGE_CURVE ( 'NONE', #92, #170, #118, .T. ) ;
#233 = LOCAL_TIME ( 10, 49, 50.00000000000000000, #48 ) ;
#234 = ORIENTED_EDGE ( 'NONE', *, *, #49, .F. ) ;
#235 = CC_DESIGN_APPROVAL ( #216, ( #318 ) ) ;
#236 = PRODUCT_DEFINITION_FORMATION_WITH_SPECIFIED_SOURCE ( 'ANY', '', #289, .NOT_KNOWN. ) ;
#237 = CARTESIAN_POINT ( 'NONE',  ( -3.051327766653533900E-016, 3.535533905932718700, -5.000000000000000000 ) ) ;
#238 = COORDINATED_UNIVERSAL_TIME_OFFSET ( 5, 0, .BEHIND. ) ;
#239 =( NAMED_UNIT ( * ) SI_UNIT ( $, .STERADIAN. ) SOLID_ANGLE_UNIT ( ) );
#240 = CC_DESIGN_PERSON_AND_ORGANIZATION_ASSIGNMENT ( #68, #323, ( #289 ) ) ;
#241 = CARTESIAN_POINT ( 'NONE',  ( 3.535533905932756800, 0.0000000000000000000, 0.0000000000000000000 ) ) ;
#242 = DIRECTION ( 'NONE',  ( 0.7071067811865436900, 0.7071067811865513500, -0.0000000000000000000 ) ) ;
#243 = LOCAL_TIME ( 10, 49, 50.00000000000000000, #167 ) ;
#244 = APPROVAL_DATE_TIME ( #143, #117 ) ;
#245 = DIRECTION ( 'NONE',  ( 0.0000000000000000000, 0.0000000000000000000, 1.000000000000000000 ) ) ;
#246 = ORIENTED_EDGE ( 'NONE', *, *, #173, .F. ) ;
#247 = APPROVAL ( #23, 'UNSPECIFIED' ) ;
#248 =( NAMED_UNIT ( * ) PLANE_ANGLE_UNIT ( ) SI_UNIT ( $, .RADIAN. ) );
#249 = CARTESIAN_POINT ( 'NONE',  ( 2.500000000000000000, -2.499999999999973400, 0.0000000000000000000 ) ) ;
#250 = DATE_AND_TIME ( #262, #283 ) ;
#251 = LINE ( 'NONE', #15, #26 ) ;
#252 = MECHANICAL_CONTEXT ( 'NONE', #219, 'mechanical' ) ;
#253 = UNCERTAINTY_MEASURE_WITH_UNIT (LENGTH_MEASURE( 1.000000000000000100E-005 ), #220, 'distance_accuracy_value', 'NONE');
#254 = PERSON_AND_ORGANIZATION ( #176, #160 ) ;
#255 = AXIS2_PLACEMENT_3D ( 'NONE', #213, #67, #122 ) ;
#256 = APPROVAL_DATE_TIME ( #115, #37 ) ;
#257 = CC_DESIGN_PERSON_AND_ORGANIZATION_ASSIGNMENT ( #336, #154, ( #236 ) ) ;
#258 = FACE_OUTER_BOUND ( 'NONE', #6, .T. ) ;
#259 = DIRECTION ( 'NONE',  ( 0.0000000000000000000, -1.000000000000000000, 0.0000000000000000000 ) ) ;
#260 = PRODUCT_DEFINITION ( 'UNKNOWN', '', #281, #111 ) ;
#261 = APPROVAL_DATE_TIME ( #226, #334 ) ;
#262 = CALENDAR_DATE ( 2017, 24, 7 ) ;
#263 = PERSON ( 'NAUO-PER2', 'UNSPECIFIED', 'UNSPECIFIED', ('UNSPECIFIED'), ('UNSPECIFIED'), ('UNSPECIFIED') ) ;
#264 = DESIGN_CONTEXT ( 'detailed design', #156, 'design' ) ;
#265 = DIRECTION ( 'NONE',  ( -0.7071067811865513500, 0.7071067811865436900, 0.0000000000000000000 ) ) ;
#266 = CARTESIAN_POINT ( 'NONE',  ( -3.535533905932756400, 0.0000000000000000000, 0.0000000000000000000 ) ) ;
#267 = CALENDAR_DATE ( 2017, 24, 7 ) ;
#268 = LINE ( 'NONE', #317, #356 ) ;
#269 = DIRECTION ( 'NONE',  ( -0.7071067811865513500, 0.7071067811865436900, 0.0000000000000000000 ) ) ;
#270 =( GEOMETRIC_REPRESENTATION_CONTEXT ( 3 ) GLOBAL_UNCERTAINTY_ASSIGNED_CONTEXT ( ( #335 ) ) GLOBAL_UNIT_ASSIGNED_CONTEXT ( ( #99, #182, #239 ) ) REPRESENTATION_CONTEXT ( 'NONE', 'WORKASPACE' ) );
#271 = APPLICATION_PROTOCOL_DEFINITION ( 'international standard', 'config_control_design', 1994, #71 ) ;
#272 = SECURITY_CLASSIFICATION_LEVEL ( 'unclassified' ) ;
#273 = PERSON_AND_ORGANIZATION ( #207, #217 ) ;
#274 = APPROVAL_PERSON_ORGANIZATION ( #291, #353, #354 ) ;
#275 = DIRECTION ( 'NONE',  ( 0.0000000000000000000, 0.0000000000000000000, 1.000000000000000000 ) ) ;
#276 = DIRECTION ( 'NONE',  ( 0.0000000000000000000, 0.0000000000000000000, 1.000000000000000000 ) ) ;
#277 =( GEOMETRIC_REPRESENTATION_CONTEXT ( 3 ) GLOBAL_UNCERTAINTY_ASSIGNED_CONTEXT ( ( #253 ) ) GLOBAL_UNIT_ASSIGNED_CONTEXT ( ( #220, #248, #328 ) ) REPRESENTATION_CONTEXT ( 'NONE', 'WORKASPACE' ) );
#278 = PERSON_AND_ORGANIZATION ( #176, #160 ) ;
#279 =( REPRESENTATION_RELATIONSHIP ('NONE','NONE', #83, #86 ) REPRESENTATION_RELATIONSHIP_WITH_TRANSFORMATION ( #311 )SHAPE_REPRESENTATION_RELATIONSHIP( ) );
#280 = APPROVAL_DATE_TIME ( #287, #216 ) ;
#281 = PRODUCT_DEFINITION_FORMATION_WITH_SPECIFIED_SOURCE ( 'ANY', '', #7, .NOT_KNOWN. ) ;
#282 = ORIENTED_EDGE ( 'NONE', *, *, #202, .T. ) ;
#283 = LOCAL_TIME ( 10, 49, 50.00000000000000000, #80 ) ;
#284 = CC_DESIGN_APPROVAL ( #128, ( #57 ) ) ;
#285 = CARTESIAN_POINT ( 'NONE',  ( -3.535533905932756400, 0.0000000000000000000, -5.000000000000000000 ) ) ;
#286 = APPROVAL_PERSON_ORGANIZATION ( #273, #334, #104 ) ;
#287 = DATE_AND_TIME ( #163, #162 ) ;
#288 = CARTESIAN_POINT ( 'NONE',  ( -3.535533905932756400, 0.0000000000000000000, 0.0000000000000000000 ) ) ;
#289 = PRODUCT ( '32328_DETAIL A', '32328_DETAIL A', '', ( #133 ) ) ;
#290 = CC_DESIGN_DATE_AND_TIME_ASSIGNMENT ( #24, #47, ( #260 ) ) ;
#291 = PERSON_AND_ORGANIZATION ( #176, #160 ) ;
#292 = CARTESIAN_POINT ( 'NONE',  ( 3.535533905932756800, 0.0000000000000000000, -5.000000000000000000 ) ) ;
#293 = EDGE_CURVE ( 'NONE', #170, #327, #2, .T. ) ;
#294 = DIRECTION ( 'NONE',  ( 0.0000000000000000000, 0.0000000000000000000, 1.000000000000000000 ) ) ;
#295 = PERSON_AND_ORGANIZATION_ROLE ( 'creator' ) ;
#296 = APPROVAL_PERSON_ORGANIZATION ( #18, #117, #46 ) ;
#297 = APPROVAL_STATUS ( 'not_yet_approved' ) ;
#298 = CC_DESIGN_APPROVAL ( #247, ( #281 ) ) ;
#299 = PERSON_AND_ORGANIZATION_ROLE ( 'design_supplier' ) ;
#300 = DATE_AND_TIME ( #11, #215 ) ;
#301 = DIRECTION ( 'NONE',  ( -0.7071067811865439100, -0.7071067811865514600, -3.251767952832756100E-017 ) ) ;
#302 = APPROVAL_STATUS ( 'not_yet_approved' ) ;
#303 = CC_DESIGN_APPROVAL ( #37, ( #236 ) ) ;
#304 = CALENDAR_DATE ( 2017, 24, 7 ) ;
#305 = DATE_AND_TIME ( #91, #63 ) ;
#306 = EDGE_CURVE ( 'NONE', #103, #92, #227, .T. ) ;
#307 = APPROVAL_PERSON_ORGANIZATION ( #205, #100, #21 ) ;
#308 = FACE_OUTER_BOUND ( 'NONE', #65, .T. ) ;
#309 = CC_DESIGN_PERSON_AND_ORGANIZATION_ASSIGNMENT ( #254, #329, ( #29 ) ) ;
#310 = DIRECTION ( 'NONE',  ( -0.7071067811865513500, -0.7071067811865438000, 0.0000000000000000000 ) ) ;
#311 = ITEM_DEFINED_TRANSFORMATION ( 'NONE', 'NONE', #358,  #144 ) ;
#312 = DATE_AND_TIME ( #325, #233 ) ;
#313 = VERTEX_POINT ( 'NONE', #210 ) ;
#314 = AXIS2_PLACEMENT_3D ( 'NONE', #237, #245, #14 ) ;
#315 = PLANE ( 'NONE',  #321 ) ;
#316 = ORIENTED_EDGE ( 'NONE', *, *, #232, .T. ) ;
#317 = CARTESIAN_POINT ( 'NONE',  ( -1.765846843364976700E-016, 3.535533905932718700, -5.000000000000000000 ) ) ;
#318 = SECURITY_CLASSIFICATION ( '', '', #165 ) ;
#319 = PERSON_AND_ORGANIZATION ( #176, #160 ) ;
#320 = ORIENTED_EDGE ( 'NONE', *, *, #107, .T. ) ;
#321 = AXIS2_PLACEMENT_3D ( 'NONE', #148, #242, #265 ) ;
#322 = APPROVAL_ROLE ( '' ) ;
#323 = PERSON_AND_ORGANIZATION_ROLE ( 'design_owner' ) ;
#324 = CARTESIAN_POINT ( 'NONE',  ( 2.500000000000000400, -2.499999999999973400, 0.0000000000000000000 ) ) ;
#325 = CALENDAR_DATE ( 2017, 24, 7 ) ;
#326 = APPROVAL_DATE_TIME ( #35, #100 ) ;
#327 = VERTEX_POINT ( 'NONE', #266 ) ;
#328 =( NAMED_UNIT ( * ) SI_UNIT ( $, .STERADIAN. ) SOLID_ANGLE_UNIT ( ) );
#329 = PERSON_AND_ORGANIZATION_ROLE ( 'classification_officer' ) ;
#330 = APPROVAL_ROLE ( '' ) ;
#331 = SECURITY_CLASSIFICATION ( '', '', #349 ) ;
#332 = CALENDAR_DATE ( 2017, 24, 7 ) ;
#333 = PERSON_AND_ORGANIZATION_ROLE ( 'classification_officer' ) ;
#334 = APPROVAL ( #132, 'UNKNOWN' ) ;
#335 = UNCERTAINTY_MEASURE_WITH_UNIT (LENGTH_MEASURE( 1.000000000000000100E-005 ), #99, 'distance_accuracy_value', 'NONE');
#336 = PERSON_AND_ORGANIZATION ( #176, #160 ) ;
#337 = CC_DESIGN_PERSON_AND_ORGANIZATION_ASSIGNMENT ( #273, #157, ( #8 ) ) ;
#338 = COORDINATED_UNIVERSAL_TIME_OFFSET ( 5, 0, .BEHIND. ) ;
#339 = FACE_OUTER_BOUND ( 'NONE', #55, .T. ) ;
#340 = DIRECTION ( 'NONE',  ( 0.0000000000000000000, -0.0000000000000000000, -1.000000000000000000 ) ) ;
#341 = APPROVAL_DATE_TIME ( #180, #128 ) ;
#342 = DIRECTION ( 'NONE',  ( -0.7071067811865513500, -0.7071067811865438000, 0.0000000000000000000 ) ) ;
#343 = PERSON_AND_ORGANIZATION ( #176, #160 ) ;
#344 = CC_DESIGN_PERSON_AND_ORGANIZATION_ASSIGNMENT ( #5, #109, ( #331 ) ) ;
#345 = ORIENTED_EDGE ( 'NONE', *, *, #179, .T. ) ;
#346 = DIRECTION ( 'NONE',  ( 1.000000000000000000, 0.0000000000000000000, 0.0000000000000000000 ) ) ;
#347 = CARTESIAN_POINT ( 'NONE',  ( -3.535533905932756400, 0.0000000000000000000, -5.000000000000000000 ) ) ;
#348 = CC_DESIGN_DATE_AND_TIME_ASSIGNMENT ( #312, #185, ( #8 ) ) ;
#349 = SECURITY_CLASSIFICATION_LEVEL ( 'unclassified' ) ;
#350 = PERSON_AND_ORGANIZATION ( #176, #160 ) ;
#351 = LOCAL_TIME ( 10, 49, 50.00000000000000000, #208 ) ;
#352 =( REPRESENTATION_RELATIONSHIP ('NONE','NONE', #83, #86 ) REPRESENTATION_RELATIONSHIP_WITH_TRANSFORMATION ( #228 )SHAPE_REPRESENTATION_RELATIONSHIP( ) );
#353 = APPROVAL ( #297, 'UNSPECIFIED' ) ;
#354 = APPROVAL_ROLE ( '' ) ;
#355 = APPROVAL_STATUS ( 'not_yet_approved' ) ;
#356 = VECTOR ( 'NONE', #152, 1000.000000000000000 ) ;
#357 = CC_DESIGN_DATE_AND_TIME_ASSIGNMENT ( #305, #113, ( #318 ) ) ;
#358 = AXIS2_PLACEMENT_3D ( 'NONE', #324, #51, #301 ) ;
#359 = PRODUCT_DEFINITION_SHAPE ( 'NONE', 'NONE',  #260 ) ;
#360 = NEXT_ASSEMBLY_USAGE_OCCURRENCE ( 'NAUO1', ' ', ' ', #260, #57, $ ) ;
#361 = NEXT_ASSEMBLY_USAGE_OCCURRENCE ( 'NAUO2', ' ', ' ', #260, #57, $ ) ;
ENDSEC;
END-ISO-10303-21;
