  0
SECTION
  2
HEADER
  9
$ACADVER
  1
AC1009
  9
$INSBASE
 10
0.0
 20
0.0
 30
0.0
  9
$EXTMIN
 10
0.090251
 20
0.118295
 30
0.0
  9
$EXTMAX
 10
10.086401
 20
7.560485
 30
0.23292
  9
$LIMMIN
 10
0.0
 20
0.0
  9
$LIMMAX
 10
10.15
 20
7.6
  9
$ORTHOMODE
 70
     1
  9
$REGENMODE
 70
     1
  9
$FILLMODE
 70
     1
  9
$QTEXTMODE
 70
     0
  9
$MIRRTEXT
 70
     0
  9
$DRAGMODE
 70
     2
  9
$LTSCALE
 40
0.25
  9
$OSMODE
 70
    39
  9
$ATTMODE
 70
     1
  9
$TEXTSIZE
 40
0.06
  9
$TRACEWID
 40
0.05
  9
$TEXTSTYLE
  7
STANDARD
  9
$CLAYER
  8
DIM1
  9
$CELTYPE
  6
BYLAYER
  9
$CECOLOR
 62
   256
  9
$DIMSCALE
 40
1.0
  9
$DIMASZ
 40
0.18
  9
$DIMEXO
 40
0.0625
  9
$DIMDLI
 40
0.38
  9
$DIMRND
 40
0.0
  9
$DIMDLE
 40
0.0
  9
$DIMEXE
 40
0.06
  9
$DIMTP
 40
0.0
  9
$DIMTM
 40
0.0
  9
$DIMTXT
 40
0.08
  9
$DIMCEN
 40
0.09
  9
$DIMTSZ
 40
0.0
  9
$DIMTOL
 70
     0
  9
$DIMLIM
 70
     0
  9
$DIMTIH
 70
     1
  9
$DIMTOH
 70
     1
  9
$DIMSE1
 70
     0
  9
$DIMSE2
 70
     0
  9
$DIMTAD
 70
     0
  9
$DIMZIN
 70
     0
  9
$DIMBLK
  1

  9
$DIMASO
 70
     0
  9
$DIMSHO
 70
     0
  9
$DIMPOST
  1

  9
$DIMAPOST
  1

  9
$DIMALT
 70
     0
  9
$DIMALTD
 70
     2
  9
$DIMALTF
 40
25.4
  9
$DIMLFAC
 40
1.0
  9
$DIMTOFL
 70
     0
  9
$DIMTVP
 40
0.0
  9
$DIMTIX
 70
     0
  9
$DIMSOXD
 70
     0
  9
$DIMSAH
 70
     0
  9
$DIMBLK1
  1

  9
$DIMBLK2
  1

  9
$DIMSTYLE
  2
STANDARD
  9
$DIMCLRD
 70
     0
  9
$DIMCLRE
 70
     0
  9
$DIMCLRT
 70
     0
  9
$DIMTFAC
 40
1.0
  9
$DIMGAP
 40
0.09
  9
$LUNITS
 70
     2
  9
$LUPREC
 70
     3
  9
$SKETCHINC
 40
0.01
  9
$FILLETRAD
 40
0.03
  9
$AUNITS
 70
     0
  9
$AUPREC
 70
     0
  9
$MENU
  1
acad
  9
$ELEVATION
 40
0.0
  9
$PELEVATION
 40
0.0
  9
$THICKNESS
 40
0.18
  9
$LIMCHECK
 70
     1
  9
$BLIPMODE
 70
     0
  9
$CHAMFERA
 40
0.005
  9
$CHAMFERB
 40
0.005
  9
$SKPOLY
 70
     0
  9
$TDCREATE
 40
2449401.342848
  9
$TDUPDATE
 40
2451186.435968
  9
$TDINDWG
 40
0.021157
  9
$TDUSRTIMER
 40
0.021157
  9
$USRTIMER
 70
     1
  9
$ANGBASE
 50
0.0
  9
$ANGDIR
 70
     0
  9
$PDMODE
 70
     0
  9
$PDSIZE
 40
0.0
  9
$PLINEWID
 40
0.0
  9
$COORDS
 70
     2
  9
$SPLFRAME
 70
     0
  9
$SPLINETYPE
 70
     6
  9
$SPLINESEGS
 70
     8
  9
$ATTDIA
 70
     0
  9
$ATTREQ
 70
     1
  9
$HANDLING
 70
     1
  9
$HANDSEED
  5
450
  9
$SURFTAB1
 70
     6
  9
$SURFTAB2
 70
     6
  9
$SURFTYPE
 70
     6
  9
$SURFU
 70
     6
  9
$SURFV
 70
     6
  9
$UCSNAME
  2

  9
$UCSORG
 10
4.288481
 20
4.916932
 30
0.0
  9
$UCSXDIR
 10
1.0
 20
0.0
 30
0.0
  9
$UCSYDIR
 10
0.0
 20
1.0
 30
0.0
  9
$PUCSNAME
  2

  9
$PUCSORG
 10
0.0
 20
0.0
 30
0.0
  9
$PUCSXDIR
 10
1.0
 20
0.0
 30
0.0
  9
$PUCSYDIR
 10
0.0
 20
1.0
 30
0.0
  9
$USERI1
 70
     0
  9
$USERI2
 70
     0
  9
$USERI3
 70
     0
  9
$USERI4
 70
     0
  9
$USERI5
 70
     0
  9
$USERR1
 40
0.0
  9
$USERR2
 40
0.0
  9
$USERR3
 40
0.0
  9
$USERR4
 40
0.0
  9
$USERR5
 40
0.0
  9
$WORLDVIEW
 70
     1
  9
$SHADEDGE
 70
     3
  9
$SHADEDIF
 70
    70
  9
$TILEMODE
 70
     1
  9
$MAXACTVP
 70
    16
  9
$PLIMCHECK
 70
     0
  9
$PEXTMIN
 10
1.000000E+020
 20
1.000000E+020
 30
1.000000E+020
  9
$PEXTMAX
 10
-1.000000E+020
 20
-1.000000E+020
 30
-1.000000E+020
  9
$PLIMMIN
 10
0.0
 20
0.0
  9
$PLIMMAX
 10
12.0
 20
9.0
  9
$UNITMODE
 70
     0
  9
$VISRETAIN
 70
     0
  9
$PLINEGEN
 70
     0
  9
$PSLTSCALE
 70
     0
  0
ENDSEC
  0
SECTION
  2
TABLES
  0
TABLE
  2
VPORT
 70
     4
  0
VPORT
  2
*ACTIVE
 70
     0
 10
0.0
 20
0.0
 11
1.0
 21
1.0
 12
5.088326
 22
3.83939
 13
0.0
 23
0.0
 14
0.005
 24
0.005
 15
0.25
 25
0.25
 16
0.0
 26
0.0
 36
1.0
 17
0.0
 27
0.0
 37
0.0
 40
7.56032
 41
1.901857
 42
50.0
 43
0.0
 44
0.0
 50
0.0
 51
0.0
 71
     0
 72
   100
 73
     0
 74
     0
 75
     0
 76
     0
 77
     0
 78
     0
  0
ENDTAB
  0
TABLE
  2
LTYPE
 70
     1
  0
LTYPE
  2
CONTINUOUS
 70
     0
  3
Solid line
 72
    65
 73
     0
 40
0.0
  0
ENDTAB
  0
TABLE
  2
LAYER
 70
     6
  0
LAYER
  2
0
 70
     0
 62
     7
  6
CONTINUOUS
  0
LAYER
  2
BORDER
 70
     0
 62
     7
  6
CONTINUOUS
  0
LAYER
  2
SHEET1
 70
     0
 62
     7
  6
CONTINUOUS
  0
LAYER
  2
DIM1
 70
     0
 62
     7
  6
CONTINUOUS
  0
LAYER
  2
DIM
 70
     0
 62
     7
  6
CONTINUOUS
  0
LAYER
  2
D1
 70
     0
 62
     7
  6
CONTINUOUS
  0
ENDTAB
  0
TABLE
  2
STYLE
 70
     1
  0
STYLE
  2
STANDARD
 70
     0
 40
0.0
 41
1.0
 50
0.0
 71
     0
 42
0.06
  3
TXT
  4

  0
ENDTAB
  0
TABLE
  2
VIEW
 70
     0
  0
ENDTAB
  0
TABLE
  2
UCS
 70
     0
  0
ENDTAB
  0
TABLE
  2
APPID
 70
     6
  0
APPID
  2
ACAD
 70
     0
  0
APPID
  2
CONTENTBLOCKDESCRIPTION
 70
     0
  0
APPID
  2
CONTENTLONGBLOCKNAME
 70
     0
  0
APPID
  2
CONTENTBLOCKICON
 70
     0
  0
APPID
  2
CONTENTTABDATA
 70
     0
  0
APPID
  2
CONTENTCURRENTTAB
 70
     0
  0
ENDTAB
  0
TABLE
  2
DIMSTYLE
 70
     1
  0
DIMSTYLE
  2
STANDARD
 70
     0
  3

  4

  5

  6

  7

 40
1.0
 41
0.18
 42
0.0625
 43
0.38
 44
0.18
 45
0.0
 46
0.0
 47
0.0
 48
0.0
140
0.18
141
0.09
142
0.0
143
25.4
144
1.0
145
0.0
146
1.0
147
0.09
 71
     0
 72
     0
 73
     1
 74
     1
 75
     0
 76
     0
 77
     0
 78
     0
170
     0
171
     2
172
     0
173
     0
174
     0
175
     0
176
     0
177
     0
178
     0
  0
ENDTAB
  0
ENDSEC
  0
SECTION
  2
BLOCKS
  0
BLOCK
  8
0
  2
$MODEL_SPACE
 70
     0
 10
0.0
 20
0.0
 30
0.0
  3
$MODEL_SPACE
  1

  0
ENDBLK
  5
26
  8
0
  0
BLOCK
 67
     1
  8
0
  2
$PAPER_SPACE
 70
     0
 10
0.0
 20
0.0
 30
0.0
  3
$PAPER_SPACE
  1

  0
ENDBLK
  5
24
 67
     1
  8
0
  0
BLOCK
  8
0
  2
COPYRI_101
 70
     0
 10
0.0
 20
0.0
 30
0.0
  3
COPYRI_101
  1

  0
TEXT
  8
0
  40
0.25
  5
44F
  72
0
  71
0
 10
0.0258730
 20
-0.00195500
 30
0.000000
  1
COPYRIGHT У 1998 by THORLABS INC.
  0
ENDBLK
  5
3D8
  8
0
  0
BLOCK
  8
0
  2
ESDINF_101
 70
     0
 10
0.0
 20
0.0
 30
0.0
  3
ESDINF_101
  1

  0
LINE
  5
3DF
  8
D1
 10
2.987898
 20
0.000297
 30
0.0
 11
-2.987323
 21
0.000297
 31
0.0
  0
LINE
  5
3E0
  8
D1
 10
-2.89229
 20
0.059637
 30
0.0
 11
2.892865
 21
0.059637
 31
0.0
  0
TEXT
  5
3E1
  8
D1
 10
-2.794565
 20
0.106519
 30
0.0
 40
0.15
  1
INFORMATION ONLY, NOT FOR MANUFACTURING
  0
ENDBLK
  5
3E3
  8
0
  0
ENDSEC
  0
SECTION
  2
ENTITIES
  0
TRACE
  5
A1
  8
BORDER
 10
0.090251
 20
0.1347
 30
0.0
 11
0.122601
 21
0.1347
 31
0.0
 12
0.090251
 22
7.560485
 32
0.0
 13
0.122601
 23
7.528135
 33
0.0
  0
TRACE
  5
A2
  8
BORDER
 10
0.090251
 20
7.560485
 30
0.0
 11
0.122601
 21
7.528135
 31
0.0
 12
10.086401
 22
7.560485
 32
0.0
 13
10.054051
 23
7.528135
 33
0.0
  0
TRACE
  5
A3
  8
BORDER
 10
10.086401
 20
7.560485
 30
0.0
 11
10.054051
 21
7.528135
 31
0.0
 12
10.086401
 22
0.1347
 32
0.0
 13
10.054051
 23
0.1347
 33
0.0
  0
TRACE
  5
A4
  8
BORDER
 10
0.106426
 20
0.150875
 30
0.0
 11
0.106426
 21
0.118525
 31
0.0
 12
10.070226
 22
0.150875
 32
0.0
 13
10.070226
 23
0.118525
 33
0.0
  0
TEXT
  5
A5
  8
BORDER
 10
7.844572
 20
0.96232
 30
0.11646
 40
0.04529
  1
TOL: X.XXX=+/-0.005 X.XX=+/-0.010 ANGULAR +/-30'
  0
TRACE
  5
A7
  8
BORDER
 10
7.789577
 20
1.0529
 30
0.11646
 11
7.789577
 21
1.03996
 31
0.11646
 12
10.050842
 22
1.0529
 32
0.11646
 13
10.050842
 23
1.03996
 33
0.11646
 39
0.11646
  0
LINE
  5
A8
  8
BORDER
 39
0.11646
 10
7.786342
 20
1.04643
 30
0.11646
 11
10.050842
 21
1.04643
 31
0.11646
  0
TRACE
  5
A9
  8
BORDER
 10
10.050842
 20
1.23406
 30
0.11646
 11
10.050842
 21
1.247
 31
0.11646
 12
7.789577
 22
1.23406
 32
0.11646
 13
7.789577
 23
1.247
 33
0.11646
 39
0.11646
  0
TRACE
  5
AA
  8
BORDER
 10
9.164452
 20
0.9235
 30
0.11646
 11
9.164452
 21
0.93644
 31
0.11646
 12
7.786342
 22
0.9235
 32
0.11646
 13
7.786342
 23
0.93644
 33
0.11646
 39
0.11646
  0
TRACE
  5
AB
  8
BORDER
 10
9.157982
 20
0.93644
 30
0.11646
 11
9.170922
 21
0.9235
 31
0.11646
 12
10.050842
 22
0.93644
 32
0.11646
 13
10.050842
 23
0.9235
 33
0.11646
 39
0.11646
  0
TRACE
  5
AC
  8
BORDER
 10
9.157982
 20
0.15357
 30
0.11646
 11
9.170922
 21
0.15357
 31
0.11646
 12
9.157982
 22
0.93644
 32
0.11646
 13
9.170922
 23
0.9235
 33
0.11646
 39
0.11646
  0
TEXT
  5
AD
  8
BORDER
 10
9.193567
 20
0.8588
 30
0.11646
 40
0.04529
  1
WHERE USED
  0
LINE
  5
AE
  8
BORDER
 39
0.11646
 10
8.741485
 20
0.34767
 30
0.11646
 11
8.741485
 21
0.54177
 31
0.11646
  0
TEXT
  5
AF
  8
BORDER
 10
8.763339
 20
0.667935
 30
0.11646
 40
0.04
  1
APPROVED
  0
TEXT
  5
B0
  8
BORDER
 10
8.352772
 20
0.667935
 30
0.11646
 40
0.04
  1
ENGR.
  0
LINE
  5
B1
  8
BORDER
 39
0.11646
 10
8.337878
 20
0.118295
 30
0.0
 11
8.337878
 21
0.7337
 31
0.0
  0
LINE
  5
B2
  8
BORDER
 39
0.11646
 10
8.741485
 20
0.54177
 30
0.11646
 11
8.741485
 21
0.73587
 31
0.11646
  0
LINE
  5
B3
  8
BORDER
 10
7.786342
 20
0.34767
 30
0.11646
 11
9.164539
 21
0.34767
 31
0.11646
  0
LINE
  5
B4
  8
BORDER
 10
7.786342
 20
0.54177
 30
0.11646
 11
9.164539
 21
0.54177
 31
0.11646
  0
LINE
  5
B5
  8
BORDER
 10
7.786342
 20
0.73587
 30
0.11646
 11
9.164539
 21
0.73587
 31
0.11646
  0
LINE
  5
B6
  8
BORDER
 10
7.786342
 20
0.92997
 30
0.11646
 11
10.050842
 21
0.92997
 31
0.11646
  0
TEXT
  5
B7
  8
BORDER
 10
9.266822
 20
1.384271
 30
0.23292
 40
0.072788
  1
PO BOX 366
  0
TEXT
  5
B8
  8
BORDER
 10
9.266822
 20
1.262959
 30
0.23292
 40
0.072788
  1
NEWTON NJ
  0
LINE
  5
B9
  8
BORDER
 10
8.704562
 20
1.33423
 30
0.23292
 11
8.678166
 21
1.419913
 31
0.23292
  0
LINE
  5
BA
  8
BORDER
 10
8.65177
 20
1.33423
 30
0.23292
 11
8.704562
 21
1.33423
 31
0.23292
  0
LINE
  5
BB
  8
BORDER
 10
8.678166
 20
1.419913
 30
0.23292
 11
8.65177
 21
1.33423
 31
0.23292
  0
LINE
  5
BC
  8
BORDER
 10
8.843426
 20
1.348787
 30
0.23292
 11
8.795061
 21
1.348787
 31
0.23292
  0
ARC
  5
BD
  8
BORDER
 10
8.843426
 20
1.323331
 30
0.23292
 40
0.025456
 50
313.227508
 51
90.0
  0
ARC
  5
BE
  8
BORDER
 10
8.838734
 20
1.328323
 30
0.23292
 40
0.032307
 50
270.0
 51
313.227508
  0
LINE
  5
BF
  8
BORDER
 10
8.795061
 20
1.296016
 30
0.23292
 11
8.838734
 21
1.296016
 31
0.23292
  0
LINE
  5
C0
  8
BORDER
 10
8.795061
 20
1.348787
 30
0.23292
 11
8.795061
 21
1.296016
 31
0.23292
  0
ARC
  5
C1
  8
BORDER
 10
8.841075
 20
1.399738
 30
0.23292
 40
0.022746
 50
270.0
 51
90.000005
  0
LINE
  5
C2
  8
BORDER
 10
8.795061
 20
1.376992
 30
0.23292
 11
8.841075
 21
1.376992
 31
0.23292
  0
LINE
  5
C3
  8
BORDER
 10
8.795061
 20
1.422485
 30
0.23292
 11
8.795061
 21
1.376992
 31
0.23292
  0
LINE
  5
C4
  8
BORDER
 10
8.841075
 20
1.422485
 30
0.23292
 11
8.795061
 21
1.422485
 31
0.23292
  0
SOLID
  5
C5
  8
BORDER
 10
9.07877
 20
1.263189
 30
0.23292
 11
9.07877
 21
1.281165
 31
0.23292
 12
9.164368
 22
1.263189
 32
0.23292
 13
9.164368
 23
1.281165
 33
0.23292
  0
SOLID
  5
C6
  8
BORDER
 10
9.164368
 20
1.296144
 30
0.23292
 11
9.07877
 21
1.296144
 31
0.23292
 12
9.164368
 22
1.31412
 32
0.23292
 13
9.07877
 23
1.31412
 33
0.23292
  0
SOLID
  5
C7
  8
BORDER
 10
9.07877
 20
1.368903
 30
0.23292
 11
9.164368
 21
1.368903
 31
0.23292
 12
9.07877
 22
1.350927
 32
0.23292
 13
9.164368
 23
1.350927
 33
0.23292
  0
SOLID
  5
C8
  8
BORDER
 10
9.07877
 20
1.314548
 30
0.23292
 11
9.164366
 21
1.368442
 31
0.23292
 12
9.078776
 22
1.297394
 32
0.23292
 13
9.164368
 23
1.350499
 33
0.23292
  0
POLYLINE
  5
C9
  8
BORDER
 66
     1
 10
0.0
 20
0.0
 30
0.23292
 40
0.003424
 41
0.003424
  0
VERTEX
  5
3EA
  8
BORDER
 10
9.10487
 20
1.438552
 30
0.23292
 42
0.342627
  0
VERTEX
  5
3EB
  8
BORDER
 10
9.088361
 20
1.420997
 30
0.23292
 42
0.294281
  0
VERTEX
  5
3EC
  8
BORDER
 10
9.100125
 20
1.398285
 30
0.23292
 42
0.273538
  0
VERTEX
  5
3ED
  8
BORDER
 10
9.14294
 20
1.398864
 30
0.23292
 42
0.20817
  0
VERTEX
  5
3EE
  8
BORDER
 10
9.153821
 20
1.414341
 30
0.23292
 42
0.418985
  0
VERTEX
  5
3EF
  8
BORDER
 10
9.137044
 20
1.439332
 30
0.23292
 42
0.418985
  0
SEQEND
  5
3F0
  8
BORDER
  0
POLYLINE
  5
D1
  8
BORDER
 66
     1
 10
0.0
 20
0.0
 30
0.23292
 40
0.003424
 41
0.003424
  0
VERTEX
  5
3F1
  8
BORDER
 10
9.080091
 20
1.431152
 30
0.23292
 42
0.398621
  0
VERTEX
  5
3F2
  8
BORDER
 10
9.102961
 20
1.382333
 30
0.23292
 42
0.398621
  0
SEQEND
  5
3F3
  8
BORDER
  0
POLYLINE
  5
D5
  8
BORDER
 66
     1
 10
0.0
 20
0.0
 30
0.23292
 40
0.003424
 41
0.003424
  0
VERTEX
  5
3F4
  8
BORDER
 10
9.102961
 20
1.382333
 30
0.23292
 42
0.270661
  0
VERTEX
  5
3F5
  8
BORDER
 10
9.151574
 20
1.389909
 30
0.23292
 42
0.270661
  0
SEQEND
  5
3F6
  8
BORDER
  0
POLYLINE
  5
D9
  8
BORDER
 66
     1
 10
0.0
 20
0.0
 30
0.23292
 40
0.003424
 41
0.003424
  0
VERTEX
  5
3F7
  8
BORDER
 10
9.151574
 20
1.389909
 30
0.23292
 42
0.179001
  0
VERTEX
  5
3F8
  8
BORDER
 10
9.164195
 20
1.411287
 30
0.23292
 42
0.179001
  0
SEQEND
  5
3F9
  8
BORDER
  0
POLYLINE
  5
DD
  8
BORDER
 66
     1
 10
0.0
 20
0.0
 30
0.23292
 40
0.003424
 41
0.003424
  0
VERTEX
  5
3FA
  8
BORDER
 10
9.164195
 20
1.411287
 30
0.23292
 42
0.152191
  0
VERTEX
  5
3FB
  8
BORDER
 10
9.161212
 20
1.435411
 30
0.23292
 42
0.152191
  0
SEQEND
  5
3FC
  8
BORDER
  0
SOLID
  5
E1
  8
BORDER
 10
9.099173
 20
1.437009
 30
0.23292
 11
9.090544
 21
1.446416
 31
0.23292
 12
9.088505
 22
1.425565
 32
0.23292
 13
9.078622
 23
1.429641
 33
0.23292
  0
SOLID
  5
E2
  8
BORDER
 10
9.088505
 20
1.425565
 30
0.23292
 11
9.078622
 21
1.429641
 31
0.23292
 12
9.090231
 22
1.407379
 32
0.23292
 13
9.079877
 23
1.403146
 33
0.23292
  0
SOLID
  5
E3
  8
BORDER
 10
9.090231
 20
1.407379
 30
0.23292
 11
9.079877
 21
1.403146
 31
0.23292
 12
9.106546
 22
1.394367
 32
0.23292
 13
9.097761
 23
1.383864
 33
0.23292
  0
SOLID
  5
E4
  8
BORDER
 10
9.106546
 20
1.394367
 30
0.23292
 11
9.097761
 21
1.383864
 31
0.23292
 12
9.124116
 22
1.392956
 32
0.23292
 13
9.125057
 23
1.378377
 33
0.23292
  0
SOLID
  5
E5
  8
BORDER
 10
9.124116
 20
1.392956
 30
0.23292
 11
9.125057
 21
1.378377
 31
0.23292
 12
9.146882
 22
1.400197
 32
0.23292
 13
9.153295
 23
1.389631
 33
0.23292
  0
SOLID
  5
E6
  8
BORDER
 10
9.146882
 20
1.400197
 30
0.23292
 11
9.153295
 21
1.389631
 31
0.23292
 12
9.154335
 22
1.416998
 32
0.23292
 13
9.165428
 23
1.411455
 33
0.23292
  0
SOLID
  5
E7
  8
BORDER
 10
9.154335
 20
1.416998
 30
0.23292
 11
9.165428
 21
1.411455
 31
0.23292
 12
9.149828
 22
1.431894
 32
0.23292
 13
9.160401
 23
1.438995
 33
0.23292
  0
SOLID
  5
E8
  8
BORDER
 10
9.149828
 20
1.431894
 30
0.23292
 11
9.160401
 21
1.438995
 31
0.23292
 12
9.139079
 22
1.438225
 32
0.23292
 13
9.1409
 23
1.453945
 33
0.23292
  0
POLYLINE
  5
E9
  8
BORDER
 66
     1
 10
0.0
 20
0.0
 30
0.23292
 40
0.003424
 41
0.003424
  0
VERTEX
  5
3FD
  8
BORDER
 10
9.161212
 20
1.435411
 30
0.23292
 42
0.261966
  0
VERTEX
  5
3FE
  8
BORDER
 10
9.136964
 20
1.453214
 30
0.23292
 42
0.265647
  0
SEQEND
  5
3FF
  8
BORDER
  0
POLYLINE
  5
ED
  8
BORDER
 66
     1
 10
0.0
 20
0.0
 30
0.23292
 40
0.003424
 41
0.003424
  0
VERTEX
  5
400
  8
BORDER
 10
9.104819
 20
1.451837
 30
0.23292
 42
0.284121
  0
VERTEX
  5
401
  8
BORDER
 10
9.080091
 20
1.431152
 30
0.23292
 42
0.288845
  0
SEQEND
  5
402
  8
BORDER
  0
SOLID
  5
F1
  8
BORDER
 10
9.099173
 20
1.437009
 30
0.23292
 11
9.090544
 21
1.446416
 31
0.23292
 12
9.102786
 22
1.437935
 32
0.23292
 13
9.101673
 23
1.452752
 33
0.23292
  0
SOLID
  5
F2
  8
BORDER
 10
9.102786
 20
1.437935
 30
0.23292
 11
9.101673
 21
1.452752
 31
0.23292
 12
9.105135
 22
1.436861
 32
0.23292
 13
9.105135
 23
1.453607
 33
0.23292
  0
SOLID
  5
F3
  8
BORDER
 10
9.139079
 20
1.438225
 30
0.23292
 11
9.1409
 21
1.453945
 31
0.23292
 12
9.136728
 22
1.43765
 32
0.23292
 13
9.136728
 23
1.454964
 33
0.23292
  0
SOLID
  5
F4
  8
BORDER
 10
8.328405
 20
1.267811
 30
0.23292
 11
8.328405
 21
1.44978
 31
0.23292
 12
8.365578
 22
1.267811
 32
0.23292
 13
8.365578
 23
1.445815
 33
0.23292
  0
POLYLINE
  5
F5
  8
BORDER
 66
     1
 10
0.0
 20
0.0
 30
0.23292
 40
0.007279
 41
0.007279
  0
VERTEX
  5
403
  8
BORDER
 10
8.434301
 20
1.358154
 30
0.23292
 42
0.939934
  0
VERTEX
  5
404
  8
BORDER
 10
8.428847
 20
1.446141
 30
0.23292
 42
0.939934
  0
SEQEND
  5
405
  8
BORDER
  0
POLYLINE
  5
F9
  8
BORDER
 66
     1
 10
0.0
 20
0.0
 30
0.23292
 40
0.007279
 41
0.007279
  0
VERTEX
  5
406
  8
BORDER
 10
8.412082
 20
1.364327
 30
0.23292
 42
1.0
  0
VERTEX
  5
407
  8
BORDER
 10
8.412082
 20
1.425678
 30
0.23292
 42
1.0
  0
SEQEND
  5
408
  8
BORDER
  0
SOLID
  5
FD
  8
BORDER
 10
8.365578
 20
1.422039
 30
0.23292
 11
8.365578
 21
1.445815
 31
0.23292
 12
8.412082
 22
1.422039
 32
0.23292
 13
8.428847
 23
1.44978
 33
0.23292
  0
SOLID
  5
FE
  8
BORDER
 10
8.365578
 20
1.367966
 30
0.23292
 11
8.365578
 21
1.340536
 31
0.23292
 12
8.412082
 22
1.367966
 32
0.23292
 13
8.401021
 23
1.340536
 33
0.23292
  0
POLYLINE
  5
FF
  8
BORDER
 66
     1
 10
0.0
 20
0.0
 30
0.23292
 40
0.007279
 41
0.007279
  0
VERTEX
  5
409
  8
BORDER
 10
8.465362
 20
1.319995
 30
0.23292
 42
0.358135
  0
VERTEX
  5
40A
  8
BORDER
 10
8.434398
 20
1.35092
 30
0.23292
 42
0.358135
  0
SEQEND
  5
40B
  8
BORDER
  0
POLYLINE
  5
103
  8
BORDER
 66
     1
 10
0.0
 20
0.0
 30
0.23292
 40
0.007279
 41
0.007279
  0
VERTEX
  5
40C
  8
BORDER
 10
8.438034
 20
1.310197
 30
0.23292
 42
0.389398
  0
VERTEX
  5
40D
  8
BORDER
 10
8.401021
 20
1.344175
 30
0.23292
 42
0.389398
  0
SEQEND
  5
40E
  8
BORDER
  0
POLYLINE
  5
107
  8
BORDER
 66
     1
 10
0.0
 20
0.0
 30
0.23292
 40
0.007279
 41
0.007279
  0
VERTEX
  5
40F
  8
BORDER
 10
8.440843
 20
1.277412
 30
0.23292
 42
0.114836
  0
VERTEX
  5
410
  8
BORDER
 10
8.443351
 20
1.269691
 30
0.23292
 42
0.114836
  0
SEQEND
  5
411
  8
BORDER
  0
SOLID
  5
10B
  8
BORDER
 10
8.434408
 20
1.309887
 30
0.23292
 11
8.437217
 21
1.277101
 31
0.23292
 12
8.468984
 22
1.320352
 32
0.23292
 13
8.472972
 23
1.279869
 33
0.23292
  0
SOLID
  5
10C
  8
BORDER
 10
8.434408
 20
1.309887
 30
0.23292
 11
8.468984
 21
1.320352
 31
0.23292
 12
8.435137
 22
1.320749
 32
0.23292
 13
8.464659
 23
1.331089
 33
0.23292
  0
SOLID
  5
10D
  8
BORDER
 10
8.435137
 20
1.320749
 30
0.23292
 11
8.464659
 21
1.331089
 31
0.23292
 12
8.426773
 22
1.332074
 32
0.23292
 13
8.446454
 23
1.34586
 33
0.23292
  0
SOLID
  5
10E
  8
BORDER
 10
8.426773
 20
1.332074
 30
0.23292
 11
8.446454
 21
1.34586
 31
0.23292
 12
8.416899
 22
1.341901
 32
0.23292
 13
8.43475
 23
1.354542
 33
0.23292
  0
SOLID
  5
10F
  8
BORDER
 10
8.416899
 20
1.341901
 30
0.23292
 11
8.43475
 21
1.354542
 31
0.23292
 12
8.401021
 22
1.340536
 32
0.23292
 13
8.412082
 23
1.367966
 33
0.23292
  0
SOLID
  5
110
  8
BORDER
 10
8.431217
 20
1.367323
 30
0.23292
 11
8.445124
 21
1.36084
 31
0.23292
 12
8.4439
 22
1.395774
 32
0.23292
 13
8.472156
 23
1.386726
 33
0.23292
  0
SOLID
  5
111
  8
BORDER
 10
8.4439
 20
1.395774
 30
0.23292
 11
8.472156
 21
1.386726
 31
0.23292
 12
8.440132
 22
1.410854
 32
0.23292
 13
8.468388
 23
1.425557
 33
0.23292
  0
SOLID
  5
112
  8
BORDER
 10
8.440132
 20
1.410854
 30
0.23292
 11
8.468388
 21
1.425557
 31
0.23292
 12
8.4277
 22
1.424049
 32
0.23292
 13
8.440509
 23
1.444784
 33
0.23292
  0
SOLID
  5
113
  8
BORDER
 10
8.4277
 20
1.424049
 30
0.23292
 11
8.440509
 21
1.444784
 31
0.23292
 12
8.412082
 22
1.422039
 32
0.23292
 13
8.428847
 23
1.44978
 33
0.23292
  0
SOLID
  5
114
  8
BORDER
 10
8.431217
 20
1.367323
 30
0.23292
 11
8.445124
 21
1.36084
 31
0.23292
 12
8.412082
 22
1.367966
 32
0.23292
 13
8.43475
 23
1.354542
 33
0.23292
  0
POLYLINE
  5
115
  8
BORDER
 66
     1
 10
0.0
 20
0.0
 30
0.23292
 40
0.007279
 41
0.007279
  0
VERTEX
  5
412
  8
BORDER
 10
8.428847
 20
1.446141
 30
0.23292
  0
VERTEX
  5
413
  8
BORDER
 10
8.328405
 20
1.446141
 30
0.23292
  0
SEQEND
  5
414
  8
BORDER
  0
POLYLINE
  5
119
  8
BORDER
 66
     1
 10
0.0
 20
0.0
 30
0.23292
 40
0.007279
 41
0.007279
  0
VERTEX
  5
415
  8
BORDER
 10
8.469351
 20
1.279512
 30
0.23292
 42
0.095067
  0
VERTEX
  5
416
  8
BORDER
 10
8.472257
 20
1.269692
 30
0.23292
 42
0.140492
  0
SEQEND
  5
417
  8
BORDER
  0
SOLID
  5
11D
  8
BORDER
 10
8.440235
 20
1.267811
 30
0.23292
 11
8.477752
 21
1.267811
 31
0.23292
 12
8.438516
 22
1.272871
 32
0.23292
 13
8.47227
 23
1.276419
 33
0.23292
  0
SOLID
  5
11E
  8
BORDER
 10
8.438516
 20
1.272871
 30
0.23292
 11
8.47227
 21
1.276419
 31
0.23292
 12
8.437217
 22
1.277101
 32
0.23292
 13
8.472972
 23
1.279869
 33
0.23292
  0
POLYLINE
  5
11F
  8
BORDER
 66
     1
 10
0.0
 20
0.0
 30
0.23292
 70
     1
 40
0.007279
 41
0.007279
  0
VERTEX
  5
418
  8
BORDER
 10
8.197162
 20
1.399432
 30
0.23292
 42
0.228527
  0
VERTEX
  5
419
  8
BORDER
 10
8.198012
 20
1.316811
 30
0.23292
 42
0.623004
  0
VERTEX
  5
41A
  8
BORDER
 10
8.285553
 20
1.317087
 30
0.23292
 42
0.229006
  0
VERTEX
  5
41B
  8
BORDER
 10
8.285807
 20
1.399792
 30
0.23292
 42
0.632312
  0
SEQEND
  5
41C
  8
BORDER
  0
POLYLINE
  5
125
  8
BORDER
 66
     1
 10
0.0
 20
0.0
 30
0.23292
 40
0.007279
 41
0.007279
  0
VERTEX
  5
41D
  8
BORDER
 10
8.320001
 20
1.393827
 30
0.23292
 42
0.741471
  0
VERTEX
  5
41E
  8
BORDER
 10
8.163443
 20
1.392903
 30
0.23292
 42
0.741471
  0
SEQEND
  5
41F
  8
BORDER
  0
POLYLINE
  5
129
  8
BORDER
 66
     1
 10
0.0
 20
0.0
 30
0.23292
 40
0.007279
 41
0.007279
  0
VERTEX
  5
420
  8
BORDER
 10
8.321356
 20
1.329631
 30
0.23292
 42
0.140695
  0
VERTEX
  5
421
  8
BORDER
 10
8.320001
 20
1.393827
 30
0.23292
 42
0.140695
  0
SEQEND
  5
422
  8
BORDER
  0
POLYLINE
  5
12D
  8
BORDER
 66
     1
 10
0.0
 20
0.0
 30
0.23292
 40
0.007279
 41
0.007279
  0
VERTEX
  5
423
  8
BORDER
 10
8.16314
 20
1.327965
 30
0.23292
 42
0.761639
  0
VERTEX
  5
424
  8
BORDER
 10
8.321356
 20
1.329631
 30
0.23292
 42
0.761639
  0
SEQEND
  5
425
  8
BORDER
  0
POLYLINE
  5
131
  8
BORDER
 66
     1
 10
0.0
 20
0.0
 30
0.23292
 40
0.007279
 41
0.007279
  0
VERTEX
  5
426
  8
BORDER
 10
8.163443
 20
1.392903
 30
0.23292
 42
0.143054
  0
VERTEX
  5
427
  8
BORDER
 10
8.16314
 20
1.327965
 30
0.23292
 42
0.143054
  0
SEQEND
  5
428
  8
BORDER
  0
SOLID
  5
135
  8
BORDER
 10
8.241335
 20
1.453472
 30
0.23292
 11
8.240566
 21
1.42732
 31
0.23292
 12
8.192908
 22
1.43655
 32
0.23292
 13
8.206744
 23
1.415782
 33
0.23292
  0
SOLID
  5
136
  8
BORDER
 10
8.192908
 20
1.43655
 30
0.23292
 11
8.206744
 21
1.415782
 31
0.23292
 12
8.16831
 22
1.408859
 32
0.23292
 13
8.194445
 23
1.390398
 33
0.23292
  0
SOLID
  5
137
  8
BORDER
 10
8.16831
 20
1.408859
 30
0.23292
 11
8.194445
 21
1.390398
 31
0.23292
 12
8.157757
 22
1.358505
 32
0.23292
 13
8.187371
 23
1.35595
 33
0.23292
  0
SOLID
  5
138
  8
BORDER
 10
8.157757
 20
1.358505
 30
0.23292
 11
8.187371
 21
1.35595
 31
0.23292
 12
8.171032
 22
1.306389
 32
0.23292
 13
8.197073
 23
1.316097
 33
0.23292
  0
SOLID
  5
139
  8
BORDER
 10
8.171032
 20
1.306389
 30
0.23292
 11
8.197073
 21
1.316097
 31
0.23292
 12
8.209327
 22
1.273178
 32
0.23292
 13
8.222603
 23
1.292083
 33
0.23292
  0
SOLID
  5
13A
  8
BORDER
 10
8.209327
 20
1.273178
 30
0.23292
 11
8.222603
 21
1.292083
 31
0.23292
 12
8.242005
 22
1.267047
 32
0.23292
 13
8.242005
 23
1.290039
 33
0.23292
  0
SOLID
  5
13B
  8
BORDER
 10
8.242005
 20
1.267047
 30
0.23292
 11
8.242005
 21
1.290039
 31
0.23292
 12
8.289491
 22
1.283397
 32
0.23292
 13
8.276726
 23
1.300769
 33
0.23292
  0
SOLID
  5
13C
  8
BORDER
 10
8.289491
 20
1.283397
 30
0.23292
 11
8.276726
 21
1.300769
 31
0.23292
 12
8.31502
 22
1.31201
 32
0.23292
 13
8.293575
 23
1.334491
 33
0.23292
  0
SOLID
  5
13D
  8
BORDER
 10
8.31502
 20
1.31201
 30
0.23292
 11
8.293575
 21
1.334491
 31
0.23292
 12
8.326254
 22
1.366169
 32
0.23292
 13
8.294597
 23
1.369234
 33
0.23292
  0
SOLID
  5
13E
  8
BORDER
 10
8.326254
 20
1.366169
 30
0.23292
 11
8.294597
 21
1.369234
 31
0.23292
 12
8.310936
 22
1.417773
 32
0.23292
 13
8.283874
 23
1.405
 33
0.23292
  0
SOLID
  5
13F
  8
BORDER
 10
8.310936
 20
1.417773
 30
0.23292
 11
8.283874
 21
1.405
 31
0.23292
 12
8.274683
 22
1.446386
 32
0.23292
 13
8.265493
 23
1.420328
 33
0.23292
  0
SOLID
  5
140
  8
BORDER
 10
8.274683
 20
1.446386
 30
0.23292
 11
8.265493
 21
1.420328
 31
0.23292
 12
8.241335
 22
1.453472
 32
0.23292
 13
8.240566
 23
1.42732
 33
0.23292
  0
SOLID
  5
141
  8
BORDER
 10
8.007156
 20
1.44978
 30
0.23292
 11
8.04355
 21
1.44978
 31
0.23292
 12
8.007156
 22
1.267811
 32
0.23292
 13
8.04355
 23
1.267811
 33
0.23292
  0
SOLID
  5
142
  8
BORDER
 10
8.119067
 20
1.44978
 30
0.23292
 11
8.155461
 21
1.44978
 31
0.23292
 12
8.119067
 22
1.267811
 32
0.23292
 13
8.155461
 23
1.267811
 33
0.23292
  0
SOLID
  5
143
  8
BORDER
 10
8.119067
 20
1.378812
 30
0.23292
 11
8.04355
 21
1.378812
 31
0.23292
 12
8.119067
 22
1.347877
 32
0.23292
 13
8.04355
 23
1.347877
 33
0.23292
  0
SOLID
  5
144
  8
BORDER
 10
7.854302
 20
1.44978
 30
0.23292
 11
8.007156
 21
1.44978
 31
0.23292
 12
7.854302
 22
1.419755
 32
0.23292
 13
8.007156
 23
1.419755
 33
0.23292
  0
POLYLINE
  5
145
  8
BORDER
 66
     1
 10
0.0
 20
0.0
 30
0.23292
  0
VERTEX
  5
429
  8
BORDER
 10
8.71297
 20
1.306934
 30
0.23292
  0
VERTEX
  5
42A
  8
BORDER
 10
8.643361
 20
1.306934
 30
0.23292
  0
VERTEX
  5
42B
  8
BORDER
 10
8.631309
 20
1.267811
 30
0.23292
  0
VERTEX
  5
42C
  8
BORDER
 10
8.593096
 20
1.267811
 30
0.23292
  0
SEQEND
  5
42D
  8
BORDER
  0
LINE
  5
14B
  8
BORDER
 10
8.476636
 20
1.267811
 30
0.23292
 11
8.605833
 21
1.267811
 31
0.23292
  0
LINE
  5
14C
  8
BORDER
 10
8.604077
 20
1.298746
 30
0.23292
 11
8.514849
 21
1.298746
 31
0.23292
  0
LINE
  5
14D
  8
BORDER
 10
8.514849
 20
1.298746
 30
0.23292
 11
8.514849
 21
1.44978
 31
0.23292
  0
LINE
  5
14E
  8
BORDER
 10
8.514849
 20
1.44978
 30
0.23292
 11
8.476636
 21
1.44978
 31
0.23292
  0
LINE
  5
14F
  8
BORDER
 10
8.476636
 20
1.44978
 30
0.23292
 11
8.476636
 21
1.267811
 31
0.23292
  0
POLYLINE
  5
150
  8
BORDER
 66
     1
 10
0.0
 20
0.0
 30
0.23292
  0
VERTEX
  5
42E
  8
BORDER
 10
8.604077
 20
1.298746
 30
0.23292
  0
VERTEX
  5
42F
  8
BORDER
 10
8.657694
 20
1.44978
 30
0.23292
  0
VERTEX
  5
430
  8
BORDER
 10
8.698637
 20
1.44978
 30
0.23292
  0
VERTEX
  5
431
  8
BORDER
 10
8.758668
 20
1.280681
 30
0.23292
  0
SEQEND
  5
432
  8
BORDER
  0
POLYLINE
  5
156
  8
BORDER
 66
     1
 10
0.0
 20
0.0
 30
0.23292
  0
VERTEX
  5
433
  8
BORDER
 10
8.763236
 20
1.267811
 30
0.23292
  0
VERTEX
  5
434
  8
BORDER
 10
8.725023
 20
1.267811
 30
0.23292
  0
VERTEX
  5
435
  8
BORDER
 10
8.71297
 20
1.306934
 30
0.23292
  0
SEQEND
  5
436
  8
BORDER
  0
ARC
  5
15B
  8
BORDER
 10
8.843684
 20
1.37495
 30
0.23292
 40
0.07483
 50
58.670206
 51
90.0
  0
LINE
  5
15C
  8
BORDER
 10
8.843684
 20
1.44978
 30
0.23292
 11
8.758668
 21
1.44978
 31
0.23292
  0
LINE
  5
15D
  8
BORDER
 10
8.758668
 20
1.44978
 30
0.23292
 11
8.758668
 21
1.280681
 31
0.23292
  0
LINE
  5
15E
  8
BORDER
 10
8.758668
 20
1.267811
 30
0.23292
 11
8.846922
 21
1.267811
 31
0.23292
  0
ARC
  5
15F
  8
BORDER
 10
8.846922
 20
1.344957
 30
0.23292
 40
0.077145
 50
270.0
 51
297.452648
  0
ARC
  5
160
  8
BORDER
 10
8.861033
 20
1.317796
 30
0.23292
 40
0.046538
 50
297.452648
 51
341.332312
  0
ARC
  5
161
  8
BORDER
 10
8.847034
 20
1.30527
 30
0.23292
 40
0.065323
 50
41.821431
 51
67.21117
  0
ARC
  5
162
  8
BORDER
 10
8.840553
 20
1.432493
 30
0.23292
 40
0.074155
 50
295.378395
 51
313.157563
  0
ARC
  5
163
  8
BORDER
 10
8.867517
 20
1.403737
 30
0.23292
 40
0.034735
 50
313.157563
 51
358.653261
  0
ARC
  5
164
  8
BORDER
 10
8.861296
 20
1.403884
 30
0.23292
 40
0.040957
 50
358.653261
 51
58.670206
  0
POLYLINE
  5
165
  8
BORDER
 66
     1
 10
0.0
 20
0.0
 30
0.23292
  0
VERTEX
  5
437
  8
BORDER
 10
8.957361
 20
1.38198
 30
0.23292
 42
0.001957
  0
VERTEX
  5
438
  8
BORDER
 10
9.00947
 20
1.371364
 30
0.23292
 42
-0.213696
  0
VERTEX
  5
439
  8
BORDER
 10
9.044911
 20
1.346593
 30
0.23292
 42
-0.207559
  0
VERTEX
  5
43A
  8
BORDER
 10
9.049812
 20
1.309226
 30
0.23292
 42
-0.231198
  0
VERTEX
  5
43B
  8
BORDER
 10
9.01534
 20
1.270961
 30
0.23292
 42
-0.176336
  0
VERTEX
  5
43C
  8
BORDER
 10
8.943384
 20
1.268513
 30
0.23292
 42
-0.211591
  0
VERTEX
  5
43D
  8
BORDER
 10
8.905123
 20
1.3029
 30
0.23292
  0
SEQEND
  5
43E
  8
BORDER
  0
POLYLINE
  5
16E
  8
BORDER
 66
     1
 10
0.0
 20
0.0
 30
0.23292
  0
VERTEX
  5
43F
  8
BORDER
 10
8.907333
 20
1.322497
 30
0.23292
  0
VERTEX
  5
440
  8
BORDER
 10
8.936511
 20
1.322497
 30
0.23292
 42
0.302044
  0
VERTEX
  5
441
  8
BORDER
 10
8.95517
 20
1.295007
 30
0.23292
 42
0.26537
  0
VERTEX
  5
442
  8
BORDER
 10
9.0052
 20
1.301597
 30
0.23292
 42
0.635606
  0
VERTEX
  5
443
  8
BORDER
 10
8.997125
 20
1.339234
 30
0.23292
 42
-0.000944
  0
VERTEX
  5
444
  8
BORDER
 10
8.937476
 20
1.353135
 30
0.23292
 42
-0.344245
  0
VERTEX
  5
445
  8
BORDER
 10
8.902279
 20
1.39694
 30
0.23292
 42
-0.322222
  0
VERTEX
  5
446
  8
BORDER
 10
8.938377
 20
1.448627
 30
0.23292
 42
-0.141736
  0
VERTEX
  5
447
  8
BORDER
 10
9.000079
 20
1.452094
 30
0.23292
 42
-0.333774
  0
VERTEX
  5
448
  8
BORDER
 10
9.044353
 20
1.39964
 30
0.23292
  0
VERTEX
  5
449
  8
BORDER
 10
9.00837
 20
1.39964
 30
0.23292
 42
0.301979
  0
VERTEX
  5
44A
  8
BORDER
 10
8.991181
 20
1.423529
 30
0.23292
 42
0.197288
  0
VERTEX
  5
44B
  8
BORDER
 10
8.953022
 20
1.422419
 30
0.23292
 42
0.728374
  0
VERTEX
  5
44C
  8
BORDER
 10
8.957361
 20
1.38198
 30
0.23292
 42
0.001957
  0
SEQEND
  5
44D
  8
BORDER
  0
ARC
  5
17E
  8
BORDER
 10
8.861033
 20
1.317796
 30
0.23292
 40
0.046538
 50
5.797667
 51
41.821431
  0
SOLID
  5
17F
  8
BORDER
 10
7.912532
 20
1.267811
 30
0.23292
 11
7.948926
 21
1.267811
 31
0.23292
 12
7.912532
 22
1.419755
 32
0.23292
 13
7.948926
 23
1.419755
 33
0.23292
  0
TEXT
  5
180
  8
BORDER
 10
8.91381
 20
0.376785
 30
0.11646
 40
0.04529
  1
OF
  0
TEXT
  5
181
  8
BORDER
 10
7.847807
 20
0.47707
 30
0.11646
 40
0.04
  1
DATE
  0
TEXT
  5
182
  8
BORDER
 10
7.844572
 20
0.8588
 30
0.11646
 40
0.04529
  1
MATERIAL
  0
TRACE
  5
183
  8
BORDER
 10
7.802517
 20
1.483155
 30
0.11646
 11
7.770167
 21
1.515505
 31
0.11646
 12
7.802517
 22
0.15357
 32
0.11646
 13
7.770167
 23
0.15357
 33
0.11646
  0
TRACE
  5
184
  8
BORDER
 10
10.050842
 20
1.483155
 30
0.11646
 11
10.050842
 21
1.515505
 31
0.11646
 12
7.802517
 22
1.483155
 32
0.11646
 13
7.770167
 23
1.515505
 33
0.11646
  0
TEXT
  5
185
  8
BORDER
 10
8.76777
 20
0.474
 30
0.11646
 40
0.04
  1
SHEET
  0
TEXT
  5
186
  8
BORDER
 10
8.354232
 20
0.473835
 30
0.11646
 40
0.04
  1
REV
  0
TEXT
  5
187
  8
BORDER
 10
7.847807
 20
0.28297
 30
0.11646
 40
0.04529
  1
DWG NO.
  0
TEXT
  5
188
  8
BORDER
 10
7.844572
 20
0.667935
 30
0.11646
 40
0.04
  1
DRAWN
  0
TEXT
  5
189
  8
BORDER
 10
7.844572
 20
1.172595
 30
0.11646
 40
0.04529
  1
TITLE
  0
LINE
  5
18A
  8
BORDER
 10
7.786342
 20
1.24053
 30
0.11646
 11
10.050842
 21
1.24053
 31
0.11646
  0
LINE
  5
18B
  8
BORDER
 10
9.164452
 20
0.92997
 30
0.11646
 11
9.164452
 21
0.150335
 31
0.11646
  0
TEXT
  5
18C
  8
BORDER
 10
8.561462
 20
0.475
 30
0.0
 40
0.04
  1
SIZE
 72
     1
 11
8.628129
 21
0.475
 31
0.0
  0
LINE
  5
18D
  8
BORDER
 39
0.18
 10
8.5222
 20
0.54177
 30
0.0
 11
8.5222
 21
0.34767
 31
0.0
  0
TEXT
  5
18E
  8
BORDER
 10
8.611863
 20
0.38
 30
0.0
 40
0.05
  1
A
 72
     1
 11
8.62853
 21
0.38
 31
0.0
  0
TEXT
  5
1B7
  8
BORDER
 10
8.357812
 20
0.28297
 30
0.11646
 40
0.04529
  1
PART NO.
  0
TEXT
  5
1B8
  8
DIM1
 10
8.087784
 20
1.092096
 30
0.0
 40
0.08
  1
LASER DIODE DRIVER
  0
TEXT
  5
1B9
  8
DIM1
 10
7.977784
 20
0.762096
 30
0.0
 40
0.06
  1
 
  0
TEXT
  5
1BA
  8
DIM1
 10
9.332784
 20
0.762096
 30
0.0
 40
0.06
  1
WEB
  0
TEXT
  5
1BB
  8
DIM1
 10
7.927784
 20
0.567096
 30
0.0
 40
0.06
  1
GM
  0
TEXT
  5
1BC
  8
DIM1
 10
8.442784
 20
0.567096
 30
0.0
 40
0.06
  1
SR
  0
TEXT
  5
1BD
  8
DIM1
 10
7.847784
 20
0.372096
 30
0.0
 40
0.06
  1
01/07/99
  0
TEXT
  5
1BE
  8
DIM1
 10
7.857784
 20
0.182096
 30
0.0
 40
0.06
  1
0187-E0W
  0
TEXT
  5
1BF
  8
DIM1
 10
8.512784
 20
0.182096
 30
0.0
 40
0.06
  1
LD2000
  0
TEXT
  5
1C0
  8
DIM1
 10
8.797784
 20
0.372096
 30
0.0
 40
0.06
  1
1
  0
TEXT
  5
1C1
  8
DIM1
 10
9.042784
 20
0.372096
 30
0.0
 40
0.06
  1
1
  0
TEXT
  5
1EA
  8
DIM1
 10
8.391726
 20
0.37
 30
0.0
 40
0.08
  1
 
  0
TEXT
  5
1EB
  8
DIM1
 10
9.331969
 20
0.659586
 30
0.0
 40
0.06
  1
MECHANICAL
  0
TEXT
  5
1EC
  8
DIM1
 10
9.331969
 20
0.559586
 30
0.0
 40
0.06
  1
DRAWING
  0
TEXT
  5
2B5
  8
DIM1
 10
8.446762
 20
0.37
 30
0.0
 40
0.08
  1
 
  0
LINE
  5
2B6
  8
SHEET1
 39
0.18
 10
1.926253
 20
6.223188
 30
0.0
 11
3.976253
 21
6.223188
 31
0.0
  0
LINE
  5
2B7
  8
SHEET1
 39
0.18
 10
3.976253
 20
6.223188
 30
0.0
 11
3.976253
 21
4.923188
 31
0.0
  0
LINE
  5
2B8
  8
SHEET1
 39
0.18
 10
3.976253
 20
4.923188
 30
0.0
 11
1.926253
 21
4.923188
 31
0.0
  0
LINE
  5
2B9
  8
SHEET1
 39
0.18
 10
1.926253
 20
4.923188
 30
0.0
 11
1.926253
 21
6.223188
 31
0.0
  0
LINE
  5
2BA
  8
SHEET1
 39
0.18
 10
3.822253
 20
5.503188
 30
0.0
 11
3.822253
 21
5.323188
 31
0.0
  0
LINE
  5
2BB
  8
SHEET1
 39
0.18
 10
2.080253
 20
5.323188
 30
0.0
 11
2.080253
 21
5.503188
 31
0.0
  0
LINE
  5
2BC
  8
SHEET1
 39
0.18
 10
3.556253
 20
5.503188
 30
0.0
 11
3.556253
 21
5.323188
 31
0.0
  0
LINE
  5
2BD
  8
SHEET1
 39
0.18
 10
2.346253
 20
5.323188
 30
0.0
 11
2.346253
 21
5.503188
 31
0.0
  0
LINE
  5
2BE
  8
SHEET1
 39
0.18
 10
3.822253
 20
5.323188
 30
0.0
 11
3.556253
 21
5.323188
 31
0.0
  0
LINE
  5
2BF
  8
SHEET1
 39
0.18
 10
2.080253
 20
5.503188
 30
0.0
 11
2.346253
 21
5.503188
 31
0.0
  0
LINE
  5
2C0
  8
SHEET1
 39
0.18
 10
2.346253
 20
5.323188
 30
0.0
 11
2.080253
 21
5.323188
 31
0.0
  0
LINE
  5
2C1
  8
SHEET1
 39
0.18
 10
3.556253
 20
5.503188
 30
0.0
 11
3.822253
 21
5.503188
 31
0.0
  0
LINE
  5
2C2
  8
SHEET1
 39
0.18
 10
6.347463
 20
4.923188
 30
0.0
 11
6.347463
 21
6.223188
 31
0.0
  0
LINE
  5
2C3
  8
SHEET1
 39
0.18
 10
8.397463
 20
4.923188
 30
0.0
 11
6.347463
 21
4.923188
 31
0.0
  0
LINE
  5
2C4
  8
SHEET1
 39
0.18
 10
3.983583
 20
1.889565
 30
0.0
 11
3.983583
 21
1.459565
 31
0.0
  0
LINE
  5
2C5
  8
SHEET1
 39
0.18
 10
6.347463
 20
6.223188
 30
0.0
 11
8.397463
 21
6.223188
 31
0.0
  0
LINE
  5
2C6
  8
SHEET1
 39
0.18
 10
8.234963
 20
5.060688
 30
0.0
 11
8.209963
 21
5.060688
 31
0.0
  0
LINE
  5
2C7
  8
SHEET1
 39
0.18
 10
8.234963
 20
5.085688
 30
0.0
 11
8.234963
 21
5.060688
 31
0.0
  0
LINE
  5
2C8
  8
SHEET1
 39
0.18
 10
8.134963
 20
5.085688
 30
0.0
 11
8.134963
 21
5.060688
 31
0.0
  0
LINE
  5
2C9
  8
SHEET1
 39
0.18
 10
8.034963
 20
5.085688
 30
0.0
 11
8.034963
 21
5.060688
 31
0.0
  0
LINE
  5
2CA
  8
SHEET1
 39
0.18
 10
7.934963
 20
5.085688
 30
0.0
 11
7.934963
 21
5.060688
 31
0.0
  0
LINE
  5
2CB
  8
SHEET1
 39
0.18
 10
7.834963
 20
5.085688
 30
0.0
 11
7.834963
 21
5.060688
 31
0.0
  0
LINE
  5
2CC
  8
SHEET1
 39
0.18
 10
7.734963
 20
5.085688
 30
0.0
 11
7.734963
 21
5.060688
 31
0.0
  0
LINE
  5
2CD
  8
SHEET1
 39
0.18
 10
7.634963
 20
5.085688
 30
0.0
 11
7.634963
 21
5.060688
 31
0.0
  0
LINE
  5
2CE
  8
SHEET1
 39
0.18
 10
7.534963
 20
5.085688
 30
0.0
 11
7.534963
 21
5.060688
 31
0.0
  0
LINE
  5
2CF
  8
SHEET1
 39
0.18
 10
7.434963
 20
5.085688
 30
0.0
 11
7.434963
 21
5.060688
 31
0.0
  0
LINE
  5
2D0
  8
SHEET1
 39
0.18
 10
7.334963
 20
5.085688
 30
0.0
 11
7.334963
 21
5.060688
 31
0.0
  0
LINE
  5
2D1
  8
SHEET1
 39
0.18
 10
7.234963
 20
5.085688
 30
0.0
 11
7.234963
 21
5.060688
 31
0.0
  0
LINE
  5
2D2
  8
SHEET1
 39
0.18
 10
7.134963
 20
5.085688
 30
0.0
 11
7.134963
 21
5.060688
 31
0.0
  0
LINE
  5
2D3
  8
SHEET1
 39
0.18
 10
7.034963
 20
5.085688
 30
0.0
 11
7.034963
 21
5.060688
 31
0.0
  0
LINE
  5
2D4
  8
SHEET1
 39
0.18
 10
6.934963
 20
5.085688
 30
0.0
 11
6.934963
 21
5.060688
 31
0.0
  0
LINE
  5
2D5
  8
SHEET1
 39
0.18
 10
6.834963
 20
5.085688
 30
0.0
 11
6.834963
 21
5.060688
 31
0.0
  0
LINE
  5
2D6
  8
SHEET1
 39
0.18
 10
6.734963
 20
5.085688
 30
0.0
 11
6.734963
 21
5.060688
 31
0.0
  0
LINE
  5
2D7
  8
SHEET1
 39
0.18
 10
6.634963
 20
5.085688
 30
0.0
 11
6.634963
 21
5.060688
 31
0.0
  0
LINE
  5
2D8
  8
SHEET1
 39
0.18
 10
6.534963
 20
5.085688
 30
0.0
 11
6.534963
 21
5.060688
 31
0.0
  0
LINE
  5
2D9
  8
SHEET1
 39
0.18
 10
8.234963
 20
5.085688
 30
0.0
 11
8.209963
 21
5.085688
 31
0.0
  0
LINE
  5
2DA
  8
SHEET1
 39
0.18
 10
8.209963
 20
5.085688
 30
0.0
 11
8.209963
 21
5.060688
 31
0.0
  0
LINE
  5
2DB
  8
SHEET1
 39
0.18
 10
8.109963
 20
5.085688
 30
0.0
 11
8.109963
 21
5.060688
 31
0.0
  0
LINE
  5
2DC
  8
SHEET1
 39
0.18
 10
8.009963
 20
5.085688
 30
0.0
 11
8.009963
 21
5.060688
 31
0.0
  0
LINE
  5
2DD
  8
SHEET1
 39
0.18
 10
7.909963
 20
5.085688
 30
0.0
 11
7.909963
 21
5.060688
 31
0.0
  0
LINE
  5
2DE
  8
SHEET1
 39
0.18
 10
7.809963
 20
5.085688
 30
0.0
 11
7.809963
 21
5.060688
 31
0.0
  0
LINE
  5
2DF
  8
SHEET1
 39
0.18
 10
7.709963
 20
5.085688
 30
0.0
 11
7.709963
 21
5.060688
 31
0.0
  0
LINE
  5
2E0
  8
SHEET1
 39
0.18
 10
7.609963
 20
5.085688
 30
0.0
 11
7.609963
 21
5.060688
 31
0.0
  0
LINE
  5
2E1
  8
SHEET1
 39
0.18
 10
7.509963
 20
5.085688
 30
0.0
 11
7.509963
 21
5.060688
 31
0.0
  0
LINE
  5
2E2
  8
SHEET1
 39
0.18
 10
7.409963
 20
5.085688
 30
0.0
 11
7.409963
 21
5.060688
 31
0.0
  0
LINE
  5
2E3
  8
SHEET1
 39
0.18
 10
7.309963
 20
5.085688
 30
0.0
 11
7.309963
 21
5.060688
 31
0.0
  0
LINE
  5
2E4
  8
SHEET1
 39
0.18
 10
7.209963
 20
5.085688
 30
0.0
 11
7.209963
 21
5.060688
 31
0.0
  0
LINE
  5
2E5
  8
SHEET1
 39
0.18
 10
7.109963
 20
5.085688
 30
0.0
 11
7.109963
 21
5.060688
 31
0.0
  0
LINE
  5
2E6
  8
SHEET1
 39
0.18
 10
7.009963
 20
5.085688
 30
0.0
 11
7.009963
 21
5.060688
 31
0.0
  0
LINE
  5
2E7
  8
SHEET1
 39
0.18
 10
6.909963
 20
5.085688
 30
0.0
 11
6.909963
 21
5.060688
 31
0.0
  0
LINE
  5
2E8
  8
SHEET1
 39
0.18
 10
6.809963
 20
5.085688
 30
0.0
 11
6.809963
 21
5.060688
 31
0.0
  0
LINE
  5
2E9
  8
SHEET1
 39
0.18
 10
6.709963
 20
5.085688
 30
0.0
 11
6.709963
 21
5.060688
 31
0.0
  0
LINE
  5
2EA
  8
SHEET1
 39
0.18
 10
6.609963
 20
5.085688
 30
0.0
 11
6.609963
 21
5.060688
 31
0.0
  0
LINE
  5
2EB
  8
SHEET1
 39
0.18
 10
6.509963
 20
5.085688
 30
0.0
 11
6.509963
 21
5.060688
 31
0.0
  0
LINE
  5
2EC
  8
SHEET1
 39
0.18
 10
8.134963
 20
5.060688
 30
0.0
 11
8.109963
 21
5.060688
 31
0.0
  0
LINE
  5
2ED
  8
SHEET1
 39
0.18
 10
8.134963
 20
5.085688
 30
0.0
 11
8.109963
 21
5.085688
 31
0.0
  0
LINE
  5
2EE
  8
SHEET1
 39
0.18
 10
8.034963
 20
5.085688
 30
0.0
 11
8.009963
 21
5.085688
 31
0.0
  0
LINE
  5
2EF
  8
SHEET1
 39
0.18
 10
8.034963
 20
5.060688
 30
0.0
 11
8.009963
 21
5.060688
 31
0.0
  0
LINE
  5
2F0
  8
SHEET1
 39
0.18
 10
7.934963
 20
5.085688
 30
0.0
 11
7.909963
 21
5.085688
 31
0.0
  0
LINE
  5
2F1
  8
SHEET1
 39
0.18
 10
7.934963
 20
5.060688
 30
0.0
 11
7.909963
 21
5.060688
 31
0.0
  0
LINE
  5
2F2
  8
SHEET1
 39
0.18
 10
7.834963
 20
5.085688
 30
0.0
 11
7.809963
 21
5.085688
 31
0.0
  0
LINE
  5
2F3
  8
SHEET1
 39
0.18
 10
7.834963
 20
5.060688
 30
0.0
 11
7.809963
 21
5.060688
 31
0.0
  0
LINE
  5
2F4
  8
SHEET1
 39
0.18
 10
7.734963
 20
5.085688
 30
0.0
 11
7.709963
 21
5.085688
 31
0.0
  0
LINE
  5
2F5
  8
SHEET1
 39
0.18
 10
7.734963
 20
5.060688
 30
0.0
 11
7.709963
 21
5.060688
 31
0.0
  0
LINE
  5
2F6
  8
SHEET1
 39
0.18
 10
7.634963
 20
5.085688
 30
0.0
 11
7.609963
 21
5.085688
 31
0.0
  0
LINE
  5
2F7
  8
SHEET1
 39
0.18
 10
7.634963
 20
5.060688
 30
0.0
 11
7.609963
 21
5.060688
 31
0.0
  0
LINE
  5
2F8
  8
SHEET1
 39
0.18
 10
7.534963
 20
5.085688
 30
0.0
 11
7.509963
 21
5.085688
 31
0.0
  0
LINE
  5
2F9
  8
SHEET1
 39
0.18
 10
7.534963
 20
5.060688
 30
0.0
 11
7.509963
 21
5.060688
 31
0.0
  0
LINE
  5
2FA
  8
SHEET1
 39
0.18
 10
7.434963
 20
5.085688
 30
0.0
 11
7.409963
 21
5.085688
 31
0.0
  0
LINE
  5
2FB
  8
SHEET1
 39
0.18
 10
7.434963
 20
5.060688
 30
0.0
 11
7.409963
 21
5.060688
 31
0.0
  0
LINE
  5
2FC
  8
SHEET1
 39
0.18
 10
7.334963
 20
5.085688
 30
0.0
 11
7.309963
 21
5.085688
 31
0.0
  0
LINE
  5
2FD
  8
SHEET1
 39
0.18
 10
7.334963
 20
5.060688
 30
0.0
 11
7.309963
 21
5.060688
 31
0.0
  0
LINE
  5
2FE
  8
SHEET1
 39
0.18
 10
7.234963
 20
5.060688
 30
0.0
 11
7.209963
 21
5.060688
 31
0.0
  0
LINE
  5
2FF
  8
SHEET1
 39
0.18
 10
7.234963
 20
5.085688
 30
0.0
 11
7.209963
 21
5.085688
 31
0.0
  0
LINE
  5
300
  8
SHEET1
 39
0.18
 10
7.134963
 20
5.085688
 30
0.0
 11
7.109963
 21
5.085688
 31
0.0
  0
LINE
  5
301
  8
SHEET1
 39
0.18
 10
7.134963
 20
5.060688
 30
0.0
 11
7.109963
 21
5.060688
 31
0.0
  0
LINE
  5
302
  8
SHEET1
 39
0.18
 10
7.034963
 20
5.085688
 30
0.0
 11
7.009963
 21
5.085688
 31
0.0
  0
LINE
  5
303
  8
SHEET1
 39
0.18
 10
7.034963
 20
5.060688
 30
0.0
 11
7.009963
 21
5.060688
 31
0.0
  0
LINE
  5
304
  8
SHEET1
 39
0.18
 10
6.934963
 20
5.060688
 30
0.0
 11
6.909963
 21
5.060688
 31
0.0
  0
LINE
  5
305
  8
SHEET1
 39
0.18
 10
6.934963
 20
5.085688
 30
0.0
 11
6.909963
 21
5.085688
 31
0.0
  0
LINE
  5
306
  8
SHEET1
 39
0.18
 10
6.834963
 20
5.085688
 30
0.0
 11
6.809963
 21
5.085688
 31
0.0
  0
LINE
  5
307
  8
SHEET1
 39
0.18
 10
6.834963
 20
5.060688
 30
0.0
 11
6.809963
 21
5.060688
 31
0.0
  0
LINE
  5
308
  8
SHEET1
 39
0.18
 10
6.734963
 20
5.060688
 30
0.0
 11
6.709963
 21
5.060688
 31
0.0
  0
LINE
  5
309
  8
SHEET1
 39
0.18
 10
6.734963
 20
5.085688
 30
0.0
 11
6.709963
 21
5.085688
 31
0.0
  0
LINE
  5
30A
  8
SHEET1
 39
0.18
 10
6.634963
 20
5.085688
 30
0.0
 11
6.609963
 21
5.085688
 31
0.0
  0
LINE
  5
30B
  8
SHEET1
 39
0.18
 10
6.634963
 20
5.060688
 30
0.0
 11
6.609963
 21
5.060688
 31
0.0
  0
LINE
  5
30C
  8
SHEET1
 39
0.18
 10
6.534963
 20
5.060688
 30
0.0
 11
6.509963
 21
5.060688
 31
0.0
  0
LINE
  5
30D
  8
SHEET1
 39
0.18
 10
6.534963
 20
5.085688
 30
0.0
 11
6.509963
 21
5.085688
 31
0.0
  0
LINE
  5
30E
  8
SHEET1
 39
0.18
 10
6.534963
 20
6.085688
 30
0.0
 11
6.509963
 21
6.085688
 31
0.0
  0
LINE
  5
30F
  8
SHEET1
 39
0.18
 10
8.234963
 20
6.085688
 30
0.0
 11
8.209963
 21
6.085688
 31
0.0
  0
LINE
  5
310
  8
SHEET1
 39
0.18
 10
8.234963
 20
6.060688
 30
0.0
 11
8.209963
 21
6.060688
 31
0.0
  0
LINE
  5
311
  8
SHEET1
 39
0.18
 10
6.534963
 20
6.060688
 30
0.0
 11
6.509963
 21
6.060688
 31
0.0
  0
LINE
  5
312
  8
SHEET1
 39
0.18
 10
6.509963
 20
6.085688
 30
0.0
 11
6.509963
 21
6.060688
 31
0.0
  0
LINE
  5
313
  8
SHEET1
 39
0.18
 10
6.534963
 20
6.085688
 30
0.0
 11
6.534963
 21
6.060688
 31
0.0
  0
LINE
  5
314
  8
SHEET1
 39
0.18
 10
8.209963
 20
6.085688
 30
0.0
 11
8.209963
 21
6.060688
 31
0.0
  0
LINE
  5
315
  8
SHEET1
 39
0.18
 10
8.234963
 20
6.085688
 30
0.0
 11
8.234963
 21
6.060688
 31
0.0
  0
LINE
  5
316
  8
DIM
 10
6.284963
 20
4.923188
 30
0.0
 11
5.612986
 21
4.923188
 31
0.0
  0
LINE
  5
317
  8
DIM
 10
6.447463
 20
5.073188
 30
0.0
 11
5.612986
 21
5.073188
 31
0.0
  0
LINE
  5
318
  8
DIM
 10
5.672986
 20
5.253188
 30
0.0
 11
5.672986
 21
5.433188
 31
0.0
  0
LINE
  5
319
  8
DIM
 10
5.672986
 20
4.743188
 30
0.0
 11
5.672986
 21
4.563188
 31
0.0
  0
SOLID
  5
31A
  8
DIM
 10
5.702986
 20
5.253188
 30
0.0
 11
5.642986
 21
5.253188
 31
0.0
 12
5.672986
 22
5.073188
 32
0.0
 13
5.672986
 23
5.073188
 33
0.0
  0
SOLID
  5
31B
  8
DIM
 10
5.702986
 20
4.743188
 30
0.0
 11
5.642986
 21
4.743188
 31
0.0
 12
5.672986
 22
4.923188
 32
0.0
 13
5.672986
 23
4.923188
 33
0.0
  0
TEXT
  5
31C
  8
DIM
 10
5.577112
 20
4.376017
 30
0.0
 40
0.08
  1
0.15
  0
LINE
  5
31D
  8
DIM
 10
4.038753
 20
6.223188
 30
0.0
 11
4.939842
 21
6.223188
 31
0.0
  0
LINE
  5
31E
  8
DIM
 10
4.038753
 20
4.923188
 30
0.0
 11
4.939842
 21
4.923188
 31
0.0
  0
LINE
  5
31F
  8
DIM
 10
4.879842
 20
6.043188
 30
0.0
 11
4.879842
 21
5.793188
 31
0.0
  0
LINE
  5
320
  8
DIM
 10
4.879842
 20
5.103188
 30
0.0
 11
4.879842
 21
5.353188
 31
0.0
  0
SOLID
  5
321
  8
DIM
 10
4.909842
 20
6.043188
 30
0.0
 11
4.849842
 21
6.043188
 31
0.0
 12
4.879842
 22
6.223188
 32
0.0
 13
4.879842
 23
6.223188
 33
0.0
  0
SOLID
  5
322
  8
DIM
 10
4.909842
 20
5.103188
 30
0.0
 11
4.849842
 21
5.103188
 31
0.0
 12
4.879842
 22
4.923188
 32
0.0
 13
4.879842
 23
4.923188
 33
0.0
  0
TEXT
  5
323
  8
DIM
 10
4.779842
 20
5.533188
 30
0.0
 40
0.08
  1
1.30
  0
LINE
  5
324
  8
DIM
 10
4.038753
 20
6.223188
 30
0.0
 11
4.591281
 21
6.223188
 31
0.0
  0
LINE
  5
325
  8
DIM
 10
3.884753
 20
5.503188
 30
0.0
 11
4.591281
 21
5.503188
 31
0.0
  0
LINE
  5
326
  8
DIM
 10
4.531281
 20
5.323188
 30
0.0
 11
4.531281
 21
5.143188
 31
0.0
  0
LINE
  5
327
  8
DIM
 10
4.531281
 20
6.403188
 30
0.0
 11
4.531281
 21
6.583188
 31
0.0
  0
SOLID
  5
328
  8
DIM
 10
4.561281
 20
5.323188
 30
0.0
 11
4.501281
 21
5.323188
 31
0.0
 12
4.531281
 22
5.503188
 32
0.0
 13
4.531281
 23
5.503188
 33
0.0
  0
SOLID
  5
329
  8
DIM
 10
4.561281
 20
6.403188
 30
0.0
 11
4.501281
 21
6.403188
 31
0.0
 12
4.531281
 22
6.223188
 32
0.0
 13
4.531281
 23
6.223188
 33
0.0
  0
TEXT
  5
32A
  8
DIM
 10
4.403247
 20
5.81913
 30
0.0
 40
0.08
  1
0.72
  0
LINE
  5
32B
  8
DIM
 10
2.017753
 20
5.503188
 30
0.0
 11
1.022371
 21
5.503188
 31
0.0
  0
LINE
  5
32C
  8
DIM
 10
2.017753
 20
5.323188
 30
0.0
 11
1.022371
 21
5.323188
 31
0.0
  0
LINE
  5
32D
  8
DIM
 10
1.082371
 20
5.143188
 30
0.0
 11
1.082371
 21
4.963188
 31
0.0
  0
LINE
  5
32E
  8
DIM
 10
1.082371
 20
5.683188
 30
0.0
 11
1.082371
 21
5.863188
 31
0.0
  0
SOLID
  5
32F
  8
DIM
 10
1.112371
 20
5.143188
 30
0.0
 11
1.052371
 21
5.143188
 31
0.0
 12
1.082371
 22
5.323188
 32
0.0
 13
1.082371
 23
5.323188
 33
0.0
  0
SOLID
  5
330
  8
DIM
 10
1.112371
 20
5.683188
 30
0.0
 11
1.052371
 21
5.683188
 31
0.0
 12
1.082371
 22
5.503188
 32
0.0
 13
1.082371
 23
5.503188
 33
0.0
  0
TEXT
  5
331
  8
DIM
 10
0.999348
 20
4.794686
 30
0.0
 40
0.08
  1
0.18
  0
LINE
  5
332
  8
DIM
 10
1.926253
 20
4.860688
 30
0.0
 11
1.926253
 21
4.32744
 31
0.0
  0
LINE
  5
333
  8
DIM
 10
2.080253
 20
5.260688
 30
0.0
 11
2.080253
 21
4.32744
 31
0.0
  0
LINE
  5
334
  8
DIM
 10
2.260253
 20
4.38744
 30
0.0
 11
2.440253
 21
4.38744
 31
0.0
  0
LINE
  5
335
  8
DIM
 10
1.746253
 20
4.38744
 30
0.0
 11
1.566253
 21
4.38744
 31
0.0
  0
SOLID
  5
336
  8
DIM
 10
2.260253
 20
4.35744
 30
0.0
 11
2.260253
 21
4.41744
 31
0.0
 12
2.080253
 22
4.38744
 32
0.0
 13
2.080253
 23
4.38744
 33
0.0
  0
SOLID
  5
337
  8
DIM
 10
1.746253
 20
4.35744
 30
0.0
 11
1.746253
 21
4.41744
 31
0.0
 12
1.926253
 22
4.38744
 32
0.0
 13
1.926253
 23
4.38744
 33
0.0
  0
TEXT
  5
338
  8
DIM
 10
1.296097
 20
4.34744
 30
0.0
 40
0.08
  1
0.15
  0
LINE
  5
339
  8
DIM
 10
1.926253
 20
4.860688
 30
0.0
 11
1.926253
 21
3.868502
 31
0.0
  0
LINE
  5
33A
  8
DIM
 10
2.346253
 20
5.260688
 30
0.0
 11
2.346253
 21
3.868502
 31
0.0
  0
LINE
  5
33B
  8
DIM
 10
2.526253
 20
3.928502
 30
0.0
 11
2.706253
 21
3.928502
 31
0.0
  0
LINE
  5
33C
  8
DIM
 10
1.746253
 20
3.928502
 30
0.0
 11
1.566253
 21
3.928502
 31
0.0
  0
SOLID
  5
33D
  8
DIM
 10
2.526253
 20
3.898502
 30
0.0
 11
2.526253
 21
3.958502
 31
0.0
 12
2.346253
 22
3.928502
 32
0.0
 13
2.346253
 23
3.928502
 33
0.0
  0
SOLID
  5
33E
  8
DIM
 10
1.746253
 20
3.898502
 30
0.0
 11
1.746253
 21
3.958502
 31
0.0
 12
1.926253
 22
3.928502
 32
0.0
 13
1.926253
 23
3.928502
 33
0.0
  0
TEXT
  5
33F
  8
DIM
 10
1.241629
 20
3.888502
 30
0.0
 40
0.08
  1
0.42
  0
LINE
  5
340
  8
DIM
 10
1.926253
 20
4.860688
 30
0.0
 11
1.926253
 21
3.427923
 31
0.0
  0
LINE
  5
341
  8
DIM
 10
3.556253
 20
5.260688
 30
0.0
 11
3.556253
 21
3.427923
 31
0.0
  0
LINE
  5
342
  8
DIM
 10
2.106253
 20
3.487923
 30
0.0
 11
2.454587
 21
3.487923
 31
0.0
  0
LINE
  5
343
  8
DIM
 10
3.376253
 20
3.487923
 30
0.0
 11
3.02792
 21
3.487923
 31
0.0
  0
SOLID
  5
344
  8
DIM
 10
2.106253
 20
3.457923
 30
0.0
 11
2.106253
 21
3.517923
 31
0.0
 12
1.926253
 22
3.487923
 32
0.0
 13
1.926253
 23
3.487923
 33
0.0
  0
SOLID
  5
345
  8
DIM
 10
3.376253
 20
3.457923
 30
0.0
 11
3.376253
 21
3.517923
 31
0.0
 12
3.556253
 22
3.487923
 32
0.0
 13
3.556253
 23
3.487923
 33
0.0
  0
TEXT
  5
346
  8
DIM
 10
2.634587
 20
3.447923
 30
0.0
 40
0.08
  1
1.63
  0
LINE
  5
347
  8
DIM
 10
1.926253
 20
4.860688
 30
0.0
 11
1.926253
 21
3.042415
 31
0.0
  0
LINE
  5
348
  8
DIM
 10
3.822253
 20
5.260688
 30
0.0
 11
3.822253
 21
3.042415
 31
0.0
  0
LINE
  5
349
  8
DIM
 10
2.106253
 20
3.102415
 30
0.0
 11
2.547587
 21
3.102415
 31
0.0
  0
LINE
  5
34A
  8
DIM
 10
3.642253
 20
3.102415
 30
0.0
 11
3.20092
 21
3.102415
 31
0.0
  0
SOLID
  5
34B
  8
DIM
 10
2.106253
 20
3.072415
 30
0.0
 11
2.106253
 21
3.132415
 31
0.0
 12
1.926253
 22
3.102415
 32
0.0
 13
1.926253
 23
3.102415
 33
0.0
  0
SOLID
  5
34C
  8
DIM
 10
3.642253
 20
3.072415
 30
0.0
 11
3.642253
 21
3.132415
 31
0.0
 12
3.822253
 22
3.102415
 32
0.0
 13
3.822253
 23
3.102415
 33
0.0
  0
TEXT
  5
34D
  8
DIM
 10
2.789072
 20
3.062415
 30
0.0
 40
0.08
  1
1.90
  0
LINE
  5
34E
  8
DIM
 10
1.926253
 20
4.860688
 30
0.0
 11
1.926253
 21
2.656908
 31
0.0
  0
LINE
  5
34F
  8
DIM
 10
3.976253
 20
4.860688
 30
0.0
 11
3.976253
 21
2.656908
 31
0.0
  0
LINE
  5
350
  8
DIM
 10
2.106253
 20
2.716908
 30
0.0
 11
2.65792
 21
2.716908
 31
0.0
  0
LINE
  5
351
  8
DIM
 10
3.796253
 20
2.716908
 30
0.0
 11
3.244587
 21
2.716908
 31
0.0
  0
SOLID
  5
352
  8
DIM
 10
2.106253
 20
2.686908
 30
0.0
 11
2.106253
 21
2.746908
 31
0.0
 12
1.926253
 22
2.716908
 32
0.0
 13
1.926253
 23
2.716908
 33
0.0
  0
SOLID
  5
353
  8
DIM
 10
3.796253
 20
2.686908
 30
0.0
 11
3.796253
 21
2.746908
 31
0.0
 12
3.976253
 22
2.716908
 32
0.0
 13
3.976253
 23
2.716908
 33
0.0
  0
TEXT
  5
354
  8
DIM
 10
2.83792
 20
2.676908
 30
0.0
 40
0.08
  1
2.05
  0
LINE
  5
355
  8
DIM
 10
6.284963
 20
4.923188
 30
0.0
 11
5.334311
 21
4.923188
 31
0.0
  0
LINE
  5
356
  8
DIM
 10
6.447463
 20
6.073188
 30
0.0
 11
5.334311
 21
6.073188
 31
0.0
  0
LINE
  5
357
  8
DIM
 10
5.394311
 20
5.103188
 30
0.0
 11
5.394311
 21
5.278188
 31
0.0
  0
LINE
  5
358
  8
DIM
 10
5.394311
 20
5.893188
 30
0.0
 11
5.394311
 21
5.718188
 31
0.0
  0
SOLID
  5
359
  8
DIM
 10
5.424311
 20
5.103188
 30
0.0
 11
5.364311
 21
5.103188
 31
0.0
 12
5.394311
 22
4.923188
 32
0.0
 13
5.394311
 23
4.923188
 33
0.0
  0
SOLID
  5
35A
  8
DIM
 10
5.424311
 20
5.893188
 30
0.0
 11
5.364311
 21
5.893188
 31
0.0
 12
5.394311
 22
6.073188
 32
0.0
 13
5.394311
 23
6.073188
 33
0.0
  0
TEXT
  5
35B
  8
DIM
 10
5.300978
 20
5.458188
 30
0.0
 40
0.08
  1
1.15
  0
SOLID
  5
35C
  8
DIM
 10
7.773061
 20
4.887117
 30
0.0
 11
7.827216
 21
4.912947
 31
0.0
 12
7.722649
 22
5.062499
 32
0.0
 13
7.722649
 23
5.062499
 33
0.0
  0
LINE
  5
35D
  8
DIM
 10
7.800139
 20
4.900032
 30
0.0
 11
8.269817
 21
3.915289
 31
0.0
  0
LINE
  5
35E
  8
DIM
 10
8.269817
 20
3.915289
 30
0.0
 11
8.449817
 21
3.915289
 31
0.0
  0
TEXT
  5
35F
  8
DIM
 10
8.629817
 20
3.875289
 30
0.0
 40
0.08
  1
PINS 0.025 SQ. TYP
  0
SOLID
  5
360
  8
DIM
 10
2.217551
 20
5.688566
 30
0.0
 11
2.159856
 21
5.672093
 31
0.0
 12
2.238123
 22
5.507246
 32
0.0
 13
2.238123
 23
5.507246
 33
0.0
  0
LINE
  5
361
  8
DIM
 10
2.188703
 20
5.680329
 30
0.0
 11
1.871217
 21
6.792271
 31
0.0
  0
LINE
  5
362
  8
DIM
 10
1.871217
 20
6.792271
 30
0.0
 11
1.691217
 21
6.792271
 31
0.0
  0
TEXT
  5
363
  8
DIM
 10
0.497884
 20
6.752271
 30
0.0
 40
0.08
  1
LASER CURRENT
  0
SOLID
  5
364
  8
DIM
 10
3.643018
 20
5.687862
 30
0.0
 11
3.585847
 21
5.669655
 31
0.0
 12
3.669054
 22
5.507246
 32
0.0
 13
3.669054
 23
5.507246
 33
0.0
  0
LINE
  5
365
  8
DIM
 10
3.614432
 20
5.678759
 30
0.0
 11
3.137041
 21
7.177778
 31
0.0
  0
LINE
  5
366
  8
DIM
 10
3.137041
 20
7.177778
 30
0.0
 11
2.957041
 21
7.177778
 31
0.0
  0
TEXT
  5
367
  8
DIM
 10
1.310374
 20
7.137778
 30
0.0
 40
0.08
  1
PHOTO DIODE CURRENT
  0
TEXT
  5
368
  8
DIM
 10
8.194498
 20
5.146355
 30
0.0
 40
0.08
  1
1
  0
TEXT
  5
369
  8
DIM
 10
6.479632
 20
5.146355
 30
0.0
 40
0.08
  1
18
  0
TEXT
  5
36A
  8
DIM
 10
6.47588
 20
5.938647
 30
0.0
 40
0.08
  1
19
  0
TEXT
  5
36B
  8
DIM
 10
8.164479
 20
5.938647
 30
0.0
 40
0.08
  1
20
  0
LINE
  5
36C
  8
SHEET1
 39
0.18
 10
1.933583
 20
1.889565
 30
0.0
 11
3.983583
 21
1.889565
 31
0.0
  0
LINE
  5
36D
  8
SHEET1
 39
0.18
 10
1.933583
 20
1.459565
 30
0.0
 11
3.983583
 21
1.459565
 31
0.0
  0
LINE
  5
36E
  8
SHEET1
 39
0.18
 10
1.933583
 20
1.459565
 30
0.0
 11
1.933583
 21
1.889565
 31
0.0
  0
LINE
  5
36F
  8
SHEET1
 39
0.18
 10
8.397463
 20
6.223188
 30
0.0
 11
8.397463
 21
4.923188
 31
0.0
  0
LINE
  5
370
  8
SHEET1
 39
0.18
 10
2.096083
 20
1.119565
 30
0.0
 11
2.121083
 21
1.119565
 31
0.0
  0
LINE
  5
371
  8
DIM
 10
6.347463
 20
4.860688
 30
0.0
 11
6.347463
 21
4.011194
 31
0.0
  0
LINE
  5
372
  8
DIM
 10
6.522463
 20
4.998188
 30
0.0
 11
6.522463
 21
4.011194
 31
0.0
  0
LINE
  5
373
  8
DIM
 10
6.702463
 20
4.071194
 30
0.0
 11
6.882463
 21
4.071194
 31
0.0
  0
LINE
  5
374
  8
DIM
 10
6.167463
 20
4.071194
 30
0.0
 11
5.987463
 21
4.071194
 31
0.0
  0
SOLID
  5
375
  8
DIM
 10
6.702463
 20
4.041194
 30
0.0
 11
6.702463
 21
4.101194
 31
0.0
 12
6.522463
 22
4.071194
 32
0.0
 13
6.522463
 23
4.071194
 33
0.0
  0
SOLID
  5
376
  8
DIM
 10
6.167463
 20
4.041194
 30
0.0
 11
6.167463
 21
4.101194
 31
0.0
 12
6.347463
 22
4.071194
 32
0.0
 13
6.347463
 23
4.071194
 33
0.0
  0
TEXT
  5
377
  8
DIM
 10
5.688442
 20
4.031194
 30
0.0
 40
0.08
  1
0.18
  0
LINE
  5
378
  8
SHEET1
 39
0.18
 10
2.096083
 20
1.119565
 30
0.0
 11
2.096083
 21
1.459565
 31
0.0
  0
LINE
  5
379
  8
SHEET1
 39
0.18
 10
2.196083
 20
1.119565
 30
0.0
 11
2.196083
 21
1.459565
 31
0.0
  0
LINE
  5
37A
  8
SHEET1
 39
0.18
 10
2.296083
 20
1.119565
 30
0.0
 11
2.296083
 21
1.459565
 31
0.0
  0
LINE
  5
37B
  8
SHEET1
 39
0.18
 10
2.396083
 20
1.119565
 30
0.0
 11
2.396083
 21
1.459565
 31
0.0
  0
LINE
  5
37C
  8
SHEET1
 39
0.18
 10
2.496083
 20
1.119565
 30
0.0
 11
2.496083
 21
1.459565
 31
0.0
  0
LINE
  5
37D
  8
SHEET1
 39
0.18
 10
2.596083
 20
1.119565
 30
0.0
 11
2.596083
 21
1.459565
 31
0.0
  0
LINE
  5
37E
  8
SHEET1
 39
0.18
 10
2.696083
 20
1.119565
 30
0.0
 11
2.696083
 21
1.459565
 31
0.0
  0
LINE
  5
37F
  8
SHEET1
 39
0.18
 10
2.796083
 20
1.119565
 30
0.0
 11
2.796083
 21
1.459565
 31
0.0
  0
LINE
  5
380
  8
SHEET1
 39
0.18
 10
2.896083
 20
1.119565
 30
0.0
 11
2.896083
 21
1.459565
 31
0.0
  0
LINE
  5
381
  8
SHEET1
 39
0.18
 10
2.996083
 20
1.119565
 30
0.0
 11
2.996083
 21
1.459565
 31
0.0
  0
LINE
  5
382
  8
SHEET1
 39
0.18
 10
3.096083
 20
1.119565
 30
0.0
 11
3.096083
 21
1.459565
 31
0.0
  0
LINE
  5
383
  8
SHEET1
 39
0.18
 10
3.196083
 20
1.119565
 30
0.0
 11
3.196083
 21
1.459565
 31
0.0
  0
LINE
  5
384
  8
SHEET1
 39
0.18
 10
3.296083
 20
1.119565
 30
0.0
 11
3.296083
 21
1.459565
 31
0.0
  0
LINE
  5
385
  8
SHEET1
 39
0.18
 10
3.396083
 20
1.119565
 30
0.0
 11
3.396083
 21
1.459565
 31
0.0
  0
LINE
  5
386
  8
SHEET1
 39
0.18
 10
3.496083
 20
1.119565
 30
0.0
 11
3.496083
 21
1.459565
 31
0.0
  0
LINE
  5
387
  8
SHEET1
 39
0.18
 10
3.596083
 20
1.119565
 30
0.0
 11
3.596083
 21
1.459565
 31
0.0
  0
LINE
  5
388
  8
SHEET1
 39
0.18
 10
3.696083
 20
1.119565
 30
0.0
 11
3.696083
 21
1.459565
 31
0.0
  0
LINE
  5
389
  8
SHEET1
 39
0.18
 10
3.796083
 20
1.119565
 30
0.0
 11
3.796083
 21
1.459565
 31
0.0
  0
LINE
  5
38A
  8
SHEET1
 39
0.18
 10
2.121083
 20
1.119565
 30
0.0
 11
2.121083
 21
1.459565
 31
0.0
  0
LINE
  5
38B
  8
SHEET1
 39
0.18
 10
2.221083
 20
1.119565
 30
0.0
 11
2.221083
 21
1.459565
 31
0.0
  0
LINE
  5
38C
  8
SHEET1
 39
0.18
 10
2.321083
 20
1.119565
 30
0.0
 11
2.321083
 21
1.459565
 31
0.0
  0
LINE
  5
38D
  8
SHEET1
 39
0.18
 10
2.421083
 20
1.119565
 30
0.0
 11
2.421083
 21
1.459565
 31
0.0
  0
LINE
  5
38E
  8
SHEET1
 39
0.18
 10
2.521083
 20
1.119565
 30
0.0
 11
2.521083
 21
1.459565
 31
0.0
  0
LINE
  5
38F
  8
SHEET1
 39
0.18
 10
2.621083
 20
1.119565
 30
0.0
 11
2.621083
 21
1.459565
 31
0.0
  0
LINE
  5
390
  8
SHEET1
 39
0.18
 10
2.721083
 20
1.119565
 30
0.0
 11
2.721083
 21
1.459565
 31
0.0
  0
LINE
  5
391
  8
SHEET1
 39
0.18
 10
2.821083
 20
1.119565
 30
0.0
 11
2.821083
 21
1.459565
 31
0.0
  0
LINE
  5
392
  8
SHEET1
 39
0.18
 10
2.921083
 20
1.119565
 30
0.0
 11
2.921083
 21
1.459565
 31
0.0
  0
LINE
  5
393
  8
SHEET1
 39
0.18
 10
3.021083
 20
1.119565
 30
0.0
 11
3.021083
 21
1.459565
 31
0.0
  0
LINE
  5
394
  8
SHEET1
 39
0.18
 10
3.121083
 20
1.119565
 30
0.0
 11
3.121083
 21
1.459565
 31
0.0
  0
LINE
  5
395
  8
SHEET1
 39
0.18
 10
3.221083
 20
1.119565
 30
0.0
 11
3.221083
 21
1.459565
 31
0.0
  0
LINE
  5
396
  8
SHEET1
 39
0.18
 10
3.321083
 20
1.119565
 30
0.0
 11
3.321083
 21
1.459565
 31
0.0
  0
LINE
  5
397
  8
SHEET1
 39
0.18
 10
3.421083
 20
1.119565
 30
0.0
 11
3.421083
 21
1.459565
 31
0.0
  0
LINE
  5
398
  8
SHEET1
 39
0.18
 10
3.521083
 20
1.119565
 30
0.0
 11
3.521083
 21
1.459565
 31
0.0
  0
LINE
  5
399
  8
SHEET1
 39
0.18
 10
3.621083
 20
1.119565
 30
0.0
 11
3.621083
 21
1.459565
 31
0.0
  0
LINE
  5
39A
  8
SHEET1
 39
0.18
 10
3.721083
 20
1.119565
 30
0.0
 11
3.721083
 21
1.459565
 31
0.0
  0
LINE
  5
39B
  8
SHEET1
 39
0.18
 10
3.821083
 20
1.119565
 30
0.0
 11
3.821083
 21
1.459565
 31
0.0
  0
LINE
  5
39C
  8
SHEET1
 39
0.18
 10
2.196083
 20
1.119565
 30
0.0
 11
2.221083
 21
1.119565
 31
0.0
  0
LINE
  5
39D
  8
SHEET1
 39
0.18
 10
2.296083
 20
1.119565
 30
0.0
 11
2.321083
 21
1.119565
 31
0.0
  0
LINE
  5
39E
  8
SHEET1
 39
0.18
 10
2.396083
 20
1.119565
 30
0.0
 11
2.421083
 21
1.119565
 31
0.0
  0
LINE
  5
39F
  8
SHEET1
 39
0.18
 10
2.496083
 20
1.119565
 30
0.0
 11
2.521083
 21
1.119565
 31
0.0
  0
LINE
  5
3A0
  8
SHEET1
 39
0.18
 10
2.596083
 20
1.119565
 30
0.0
 11
2.621083
 21
1.119565
 31
0.0
  0
LINE
  5
3A1
  8
SHEET1
 39
0.18
 10
2.696083
 20
1.119565
 30
0.0
 11
2.721083
 21
1.119565
 31
0.0
  0
LINE
  5
3A2
  8
SHEET1
 39
0.18
 10
2.796083
 20
1.119565
 30
0.0
 11
2.821083
 21
1.119565
 31
0.0
  0
LINE
  5
3A3
  8
SHEET1
 39
0.18
 10
2.896083
 20
1.119565
 30
0.0
 11
2.921083
 21
1.119565
 31
0.0
  0
LINE
  5
3A4
  8
SHEET1
 39
0.18
 10
2.996083
 20
1.119565
 30
0.0
 11
3.021083
 21
1.119565
 31
0.0
  0
LINE
  5
3A5
  8
SHEET1
 39
0.18
 10
3.096083
 20
1.119565
 30
0.0
 11
3.121083
 21
1.119565
 31
0.0
  0
LINE
  5
3A6
  8
SHEET1
 39
0.18
 10
3.196083
 20
1.119565
 30
0.0
 11
3.221083
 21
1.119565
 31
0.0
  0
LINE
  5
3A7
  8
SHEET1
 39
0.18
 10
3.296083
 20
1.119565
 30
0.0
 11
3.321083
 21
1.119565
 31
0.0
  0
LINE
  5
3A8
  8
SHEET1
 39
0.18
 10
3.396083
 20
1.119565
 30
0.0
 11
3.421083
 21
1.119565
 31
0.0
  0
LINE
  5
3A9
  8
SHEET1
 39
0.18
 10
3.496083
 20
1.119565
 30
0.0
 11
3.521083
 21
1.119565
 31
0.0
  0
LINE
  5
3AA
  8
SHEET1
 39
0.18
 10
3.596083
 20
1.119565
 30
0.0
 11
3.621083
 21
1.119565
 31
0.0
  0
LINE
  5
3AB
  8
SHEET1
 39
0.18
 10
3.696083
 20
1.119565
 30
0.0
 11
3.721083
 21
1.119565
 31
0.0
  0
LINE
  5
3AC
  8
SHEET1
 39
0.18
 10
3.796083
 20
1.119565
 30
0.0
 11
3.821083
 21
1.119565
 31
0.0
  0
CIRCLE
  5
3AD
  8
SHEET1
 39
0.18
 10
2.130253
 20
5.453188
 30
0.0
 40
0.035
  0
CIRCLE
  5
3AE
  8
SHEET1
 39
0.18
 10
3.606253
 20
5.453188
 30
0.0
 40
0.035
  0
TEXT
  5
3AF
  8
DIM
 10
8.628081
 20
3.740855
 30
0.0
 40
0.08
  1
ON 0.10 CENTERS
  0
LINE
  5
3B0
  8
DIM
 10
8.222463
 20
6.148188
 30
0.0
 11
8.222463
 21
6.735673
 31
0.0
  0
LINE
  5
3B1
  8
DIM
 10
6.522463
 20
6.148188
 30
0.0
 11
6.522463
 21
6.735673
 31
0.0
  0
LINE
  5
3B2
  8
DIM
 10
8.042463
 20
6.675673
 30
0.0
 11
7.652463
 21
6.675673
 31
0.0
  0
LINE
  5
3B3
  8
DIM
 10
6.702463
 20
6.675673
 30
0.0
 11
7.092463
 21
6.675673
 31
0.0
  0
SOLID
  5
3B4
  8
DIM
 10
8.042463
 20
6.645673
 30
0.0
 11
8.042463
 21
6.705673
 31
0.0
 12
8.222463
 22
6.675673
 32
0.0
 13
8.222463
 23
6.675673
 33
0.0
  0
SOLID
  5
3B5
  8
DIM
 10
6.702463
 20
6.645673
 30
0.0
 11
6.702463
 21
6.705673
 31
0.0
 12
6.522463
 22
6.675673
 32
0.0
 13
6.522463
 23
6.675673
 33
0.0
  0
TEXT
  5
3B6
  8
DIM
 10
7.272463
 20
6.635673
 30
0.0
 40
0.08
  1
1.70
  0
LINE
  5
3B7
  8
DIM
 10
4.046083
 20
1.889565
 30
0.0
 11
4.821612
 21
1.889565
 31
0.0
  0
LINE
  5
3B8
  8
DIM
 10
4.046083
 20
1.459565
 30
0.0
 11
4.821612
 21
1.459565
 31
0.0
  0
LINE
  5
3B9
  8
DIM
 10
4.761612
 20
1.279565
 30
0.0
 11
4.761612
 21
1.099565
 31
0.0
  0
LINE
  5
3BA
  8
DIM
 10
4.761612
 20
2.069565
 30
0.0
 11
4.761612
 21
2.249565
 31
0.0
  0
SOLID
  5
3BB
  8
DIM
 10
4.791612
 20
1.279565
 30
0.0
 11
4.731612
 21
1.279565
 31
0.0
 12
4.761612
 22
1.459565
 32
0.0
 13
4.761612
 23
1.459565
 33
0.0
  0
SOLID
  5
3BC
  8
DIM
 10
4.791612
 20
2.069565
 30
0.0
 11
4.731612
 21
2.069565
 31
0.0
 12
4.761612
 22
1.889565
 32
0.0
 13
4.761612
 23
1.889565
 33
0.0
  0
TEXT
  5
3BD
  8
DIM
 10
4.642431
 20
1.646437
 30
0.0
 40
0.08
  1
0.43
  0
LINE
  5
3BE
  8
DIM
 10
4.046083
 20
1.889565
 30
0.0
 11
5.327346
 21
1.889565
 31
0.0
  0
LINE
  5
3BF
  8
DIM
 10
3.883583
 20
1.119565
 30
0.0
 11
5.327346
 21
1.119565
 31
0.0
  0
LINE
  5
3C0
  8
DIM
 10
5.267346
 20
0.939565
 30
0.0
 11
5.267346
 21
0.759565
 31
0.0
  0
LINE
  5
3C1
  8
DIM
 10
5.267346
 20
2.069565
 30
0.0
 11
5.267346
 21
2.249565
 31
0.0
  0
SOLID
  5
3C2
  8
DIM
 10
5.297346
 20
0.939565
 30
0.0
 11
5.237346
 21
0.939565
 31
0.0
 12
5.267346
 22
1.119565
 32
0.0
 13
5.267346
 23
1.119565
 33
0.0
  0
SOLID
  5
3C3
  8
DIM
 10
5.297346
 20
2.069565
 30
0.0
 11
5.237346
 21
2.069565
 31
0.0
 12
5.267346
 22
1.889565
 32
0.0
 13
5.267346
 23
1.889565
 33
0.0
  0
TEXT
  5
3C4
  8
DIM
 10
5.157506
 20
1.494163
 30
0.0
 40
0.08
  1
0.77
  0
TEXT
  5
3C5
  8
BORDER
 10
8.409459
 20
0.375872
 30
0.0
 40
0.05
  1
A
 72
     1
 11
8.426125
 21
0.375872
 31
0.0
  0
INSERT
  5
3DB
  8
DIM1
  2
COPYRI_101
 10
3.876755
 20
7.069527
 30
0.0
 41
0.5
 42
0.5
 43
0.5
  0
INSERT
  5
3E4
  8
DIM1
  2
ESDINF_101
 10
4.577664
 20
0.389244
 30
0.0
 41
0.5
 42
0.5
 43
0.5
  0
ENDSEC
  0
EOF
