ISO-10303-21;
HEADER;
FILE_DESCRIPTION (( 'STEP AP203' ),
    '1' );
FILE_NAME ('Web Model 68375.STEP',
    '2017-01-31T19:51:11',
    ( '' ),
    ( '' ),
    'SwSTEP 2.0',
    'SolidWorks 2016',
    '' );
FILE_SCHEMA (( 'CONFIG_CONTROL_DESIGN' ));
ENDSEC;

DATA;
#1 = FACE_OUTER_BOUND ( 'NONE', #23, .T. ) ;
#2 = PLANE ( 'NONE',  #231 ) ;
#3 = AXIS2_PLACEMENT_3D ( 'NONE', #182, #93, #184 ) ;
#4 = DIRECTION ( 'NONE',  ( 0.0000000000000000000, 0.0000000000000000000, -1.000000000000000000 ) ) ;
#5 = CARTESIAN_POINT ( 'NONE',  ( -24.99999999999999300, -25.00000000000000000, 0.0000000000000000000 ) ) ;
#6 = EDGE_CURVE ( 'NONE', #108, #24, #95, .T. ) ;
#7 = LINE ( 'NONE', #85, #92 ) ;
#8 = ORIENTED_EDGE ( 'NONE', *, *, #213, .T. ) ;
#9 = PLANE ( 'NONE',  #3 ) ;
#10 = DATE_AND_TIME ( #202, #218 ) ;
#11 = DIRECTION ( 'NONE',  ( -2.081668171172168500E-016, 1.000000000000000000, -0.0000000000000000000 ) ) ;
#12 = DIRECTION ( 'NONE',  ( -1.000000000000000000, -2.081668171172168300E-016, 0.0000000000000000000 ) ) ;
#13 = CARTESIAN_POINT ( 'NONE',  ( -25.00000000000000000, 25.00000000000000400, 0.0000000000000000000 ) ) ;
#14 = EDGE_CURVE ( 'NONE', #39, #220, #223, .T. ) ;
#15 = ADVANCED_FACE ( 'NONE', ( #16 ), #2, .F. ) ;
#16 = FACE_OUTER_BOUND ( 'NONE', #151, .T. ) ;
#17 = ORIENTED_EDGE ( 'NONE', *, *, #99, .F. ) ;
#18 = ADVANCED_FACE ( 'NONE', ( #1 ), #113, .T. ) ;
#19 = SECURITY_CLASSIFICATION ( '', '', #197 ) ;
#20 = ADVANCED_FACE ( 'NONE', ( #53 ), #98, .F. ) ;
#21 = PERSON_AND_ORGANIZATION ( #68, #141 ) ;
#22 = PERSON_AND_ORGANIZATION ( #68, #141 ) ;
#23 = EDGE_LOOP ( 'NONE', ( #59, #139, #74, #84 ) ) ;
#24 = VERTEX_POINT ( 'NONE', #145 ) ;
#25 = DIRECTION ( 'NONE',  ( -1.000000000000000000, 0.0000000000000000000, -0.0000000000000000000 ) ) ;
#26 = ADVANCED_BREP_SHAPE_REPRESENTATION ( 'Web Model 68375', ( #183, #201 ), #48 ) ;
#27 = CARTESIAN_POINT ( 'NONE',  ( -25.00000000000000000, 25.00000000000000400, 3.000000000000000000 ) ) ;
#28 = COORDINATED_UNIVERSAL_TIME_OFFSET ( 5, 0, .BEHIND. ) ;
#29 =( LENGTH_UNIT ( ) NAMED_UNIT ( * ) SI_UNIT ( .MILLI., .METRE. ) );
#30 = PRODUCT_DEFINITION_SHAPE ( 'NONE', 'NONE',  #31 ) ;
#31 = PRODUCT_DEFINITION ( 'UNKNOWN', '', #194, #222 ) ;
#32 = DIRECTION ( 'NONE',  ( 1.387778780781445700E-016, -1.000000000000000000, 0.0000000000000000000 ) ) ;
#33 = APPROVAL_DATE_TIME ( #123, #89 ) ;
#34 = DIRECTION ( 'NONE',  ( -0.0000000000000000000, -0.0000000000000000000, -1.000000000000000000 ) ) ;
#35 = VERTEX_POINT ( 'NONE', #60 ) ;
#36 = CC_DESIGN_PERSON_AND_ORGANIZATION_ASSIGNMENT ( #70, #196, ( #19 ) ) ;
#37 = PERSON_AND_ORGANIZATION ( #68, #141 ) ;
#38 = LINE ( 'NONE', #227, #138 ) ;
#39 = VERTEX_POINT ( 'NONE', #96 ) ;
#40 = EDGE_LOOP ( 'NONE', ( #65, #87, #129, #80 ) ) ;
#41 = CARTESIAN_POINT ( 'NONE',  ( -24.99999999999999300, -25.00000000000000000, 3.000000000000000000 ) ) ;
#42 = CARTESIAN_POINT ( 'NONE',  ( -24.99999999999999300, -25.00000000000000000, 0.0000000000000000000 ) ) ;
#43 = CARTESIAN_POINT ( 'NONE',  ( 0.0000000000000000000, 0.0000000000000000000, 0.0000000000000000000 ) ) ;
#44 = CALENDAR_DATE ( 2017, 31, 1 ) ;
#45 = VECTOR ( 'NONE', #147, 1000.000000000000000 ) ;
#46 = CARTESIAN_POINT ( 'NONE',  ( 24.99999999999999600, 25.00000000000001100, 3.000000000000000000 ) ) ;
#47 = CARTESIAN_POINT ( 'NONE',  ( 24.99999999999999600, 25.00000000000001100, 0.0000000000000000000 ) ) ;
#48 =( GEOMETRIC_REPRESENTATION_CONTEXT ( 3 ) GLOBAL_UNCERTAINTY_ASSIGNED_CONTEXT ( ( #209 ) ) GLOBAL_UNIT_ASSIGNED_CONTEXT ( ( #29, #120, #192 ) ) REPRESENTATION_CONTEXT ( 'NONE', 'WORKASPACE' ) );
#49 = CC_DESIGN_PERSON_AND_ORGANIZATION_ASSIGNMENT ( #119, #195, ( #31 ) ) ;
#50 = EDGE_LOOP ( 'NONE', ( #51, #178, #106, #155 ) ) ;
#51 = ORIENTED_EDGE ( 'NONE', *, *, #237, .T. ) ;
#52 = APPROVAL_ROLE ( '' ) ;
#53 = FACE_OUTER_BOUND ( 'NONE', #50, .T. ) ;
#54 = ADVANCED_FACE ( 'NONE', ( #193 ), #9, .F. ) ;
#55 = CC_DESIGN_DATE_AND_TIME_ASSIGNMENT ( #10, #150, ( #19 ) ) ;
#56 = AXIS2_PLACEMENT_3D ( 'NONE', #125, #160, #78 ) ;
#57 = CARTESIAN_POINT ( 'NONE',  ( -24.99999999999999300, -25.00000000000000000, 3.000000000000000000 ) ) ;
#58 = LINE ( 'NONE', #130, #105 ) ;
#59 = ORIENTED_EDGE ( 'NONE', *, *, #191, .F. ) ;
#60 = CARTESIAN_POINT ( 'NONE',  ( 25.00000000000000700, -24.99999999999999300, 0.0000000000000000000 ) ) ;
#61 = CARTESIAN_POINT ( 'NONE',  ( -25.00000000000000000, 25.00000000000000400, 3.000000000000000000 ) ) ;
#62 = ORIENTED_EDGE ( 'NONE', *, *, #6, .T. ) ;
#63 = DIRECTION ( 'NONE',  ( -0.0000000000000000000, -0.0000000000000000000, -1.000000000000000000 ) ) ;
#64 = FACE_OUTER_BOUND ( 'NONE', #187, .T. ) ;
#65 = ORIENTED_EDGE ( 'NONE', *, *, #174, .T. ) ;
#66 = PERSON_AND_ORGANIZATION_ROLE ( 'design_supplier' ) ;
#67 = APPLICATION_CONTEXT ( 'configuration controlled 3d designs of mechanical parts and assemblies' ) ;
#68 = PERSON ( 'UNSPECIFIED', 'UNSPECIFIED', 'UNSPECIFIED', ('UNSPECIFIED'), ('UNSPECIFIED'), ('UNSPECIFIED') ) ;
#69 = DIRECTION ( 'NONE',  ( 1.000000000000000000, 0.0000000000000000000, 0.0000000000000000000 ) ) ;
#70 = PERSON_AND_ORGANIZATION ( #68, #141 ) ;
#71 = CLOSED_SHELL ( 'NONE', ( #72, #54, #214, #20, #15, #18 ) ) ;
#72 = ADVANCED_FACE ( 'NONE', ( #64 ), #224, .F. ) ;
#73 = LINE ( 'NONE', #226, #144 ) ;
#74 = ORIENTED_EDGE ( 'NONE', *, *, #174, .F. ) ;
#75 = CC_DESIGN_PERSON_AND_ORGANIZATION_ASSIGNMENT ( #21, #154, ( #146 ) ) ;
#76 = DIRECTION ( 'NONE',  ( 0.0000000000000000000, 0.0000000000000000000, -1.000000000000000000 ) ) ;
#77 = ORIENTED_EDGE ( 'NONE', *, *, #14, .F. ) ;
#78 = DIRECTION ( 'NONE',  ( 1.000000000000000000, 1.387778780781445400E-016, 0.0000000000000000000 ) ) ;
#79 = LINE ( 'NONE', #149, #45 ) ;
#80 = ORIENTED_EDGE ( 'NONE', *, *, #234, .T. ) ;
#81 = DIRECTION ( 'NONE',  ( 2.081668171172168300E-016, -1.000000000000000000, 0.0000000000000000000 ) ) ;
#82 = LOCAL_TIME ( 14, 51, 11.00000000000000000, #28 ) ;
#83 = DIRECTION ( 'NONE',  ( -1.000000000000000000, -1.387778780781445700E-016, 0.0000000000000000000 ) ) ;
#84 = ORIENTED_EDGE ( 'NONE', *, *, #200, .F. ) ;
#85 = CARTESIAN_POINT ( 'NONE',  ( 25.00000000000000700, -24.99999999999999300, 3.000000000000000000 ) ) ;
#86 = APPROVAL_STATUS ( 'not_yet_approved' ) ;
#87 = ORIENTED_EDGE ( 'NONE', *, *, #179, .F. ) ;
#88 = MECHANICAL_CONTEXT ( 'NONE', #207, 'mechanical' ) ;
#89 = APPROVAL ( #86, 'UNSPECIFIED' ) ;
#90 = CC_DESIGN_SECURITY_CLASSIFICATION ( #19, ( #194 ) ) ;
#91 = COORDINATED_UNIVERSAL_TIME_OFFSET ( 5, 0, .BEHIND. ) ;
#92 = VECTOR ( 'NONE', #208, 1000.000000000000000 ) ;
#93 = DIRECTION ( 'NONE',  ( -1.387778780781445400E-016, 1.000000000000000000, 0.0000000000000000000 ) ) ;
#94 = AXIS2_PLACEMENT_3D ( 'NONE', #188, #12, #81 ) ;
#95 = LINE ( 'NONE', #162, #109 ) ;
#96 = CARTESIAN_POINT ( 'NONE',  ( -24.99999999999999300, -25.00000000000000000, 3.000000000000000000 ) ) ;
#97 = ORIENTED_EDGE ( 'NONE', *, *, #117, .F. ) ;
#98 = PLANE ( 'NONE',  #56 ) ;
#99 = EDGE_CURVE ( 'NONE', #39, #165, #7, .T. ) ;
#100 = CARTESIAN_POINT ( 'NONE',  ( 24.99999999999999600, 25.00000000000001100, 0.0000000000000000000 ) ) ;
#101 = LOCAL_TIME ( 14, 51, 11.00000000000000000, #158 ) ;
#102 = ORIENTED_EDGE ( 'NONE', *, *, #234, .F. ) ;
#103 = CARTESIAN_POINT ( 'NONE',  ( 25.00000000000000700, -24.99999999999999300, 3.000000000000000000 ) ) ;
#104 = CALENDAR_DATE ( 2017, 31, 1 ) ;
#105 = VECTOR ( 'NONE', #34, 1000.000000000000000 ) ;
#106 = ORIENTED_EDGE ( 'NONE', *, *, #213, .F. ) ;
#107 = COORDINATED_UNIVERSAL_TIME_OFFSET ( 5, 0, .BEHIND. ) ;
#108 = VERTEX_POINT ( 'NONE', #205 ) ;
#109 = VECTOR ( 'NONE', #159, 1000.000000000000000 ) ;
#110 = VERTEX_POINT ( 'NONE', #100 ) ;
#111 = ORIENTED_EDGE ( 'NONE', *, *, #236, .T. ) ;
#112 = EDGE_LOOP ( 'NONE', ( #203, #102, #17, #210 ) ) ;
#113 = PLANE ( 'NONE',  #217 ) ;
#114 = CC_DESIGN_APPROVAL ( #152, ( #194 ) ) ;
#115 = PERSON_AND_ORGANIZATION ( #68, #141 ) ;
#116 = DIRECTION ( 'NONE',  ( 1.000000000000000000, 1.387778780781445400E-016, -0.0000000000000000000 ) ) ;
#117 = EDGE_CURVE ( 'NONE', #108, #39, #190, .T. ) ;
#118 = PLANE ( 'NONE',  #94 ) ;
#119 = PERSON_AND_ORGANIZATION ( #68, #141 ) ;
#120 =( NAMED_UNIT ( * ) PLANE_ANGLE_UNIT ( ) SI_UNIT ( $, .RADIAN. ) );
#121 = APPROVAL_STATUS ( 'not_yet_approved' ) ;
#122 = APPROVAL_PERSON_ORGANIZATION ( #170, #135, #52 ) ;
#123 = DATE_AND_TIME ( #206, #101 ) ;
#124 = VECTOR ( 'NONE', #32, 1000.000000000000000 ) ;
#125 = CARTESIAN_POINT ( 'NONE',  ( 24.99999999999999600, 25.00000000000001100, 3.000000000000000000 ) ) ;
#126 = DIRECTION ( 'NONE',  ( -1.000000000000000000, 0.0000000000000000000, -0.0000000000000000000 ) ) ;
#127 = DATE_AND_TIME ( #140, #228 ) ;
#128 = VECTOR ( 'NONE', #163, 1000.000000000000000 ) ;
#129 = ORIENTED_EDGE ( 'NONE', *, *, #236, .F. ) ;
#130 = CARTESIAN_POINT ( 'NONE',  ( 25.00000000000000700, -24.99999999999999300, 3.000000000000000000 ) ) ;
#131 = CARTESIAN_POINT ( 'NONE',  ( 24.99999999999999600, 25.00000000000001100, 3.000000000000000000 ) ) ;
#132 = DIRECTION ( 'NONE',  ( -1.387778780781445400E-016, 1.000000000000000000, 0.0000000000000000000 ) ) ;
#133 = DIRECTION ( 'NONE',  ( 1.387778780781445700E-016, -1.000000000000000000, 0.0000000000000000000 ) ) ;
#134 = LINE ( 'NONE', #46, #219 ) ;
#135 = APPROVAL ( #121, 'UNSPECIFIED' ) ;
#136 = APPROVAL_ROLE ( '' ) ;
#137 = PERSON_AND_ORGANIZATION_ROLE ( 'creator' ) ;
#138 = VECTOR ( 'NONE', #11, 1000.000000000000000 ) ;
#139 = ORIENTED_EDGE ( 'NONE', *, *, #237, .F. ) ;
#140 = CALENDAR_DATE ( 2017, 31, 1 ) ;
#141 = ORGANIZATION ( 'UNSPECIFIED', 'UNSPECIFIED', '' ) ;
#142 = CC_DESIGN_APPROVAL ( #89, ( #31 ) ) ;
#143 = APPROVAL_PERSON_ORGANIZATION ( #22, #152, #176 ) ;
#144 = VECTOR ( 'NONE', #169, 1000.000000000000000 ) ;
#145 = CARTESIAN_POINT ( 'NONE',  ( -25.00000000000000000, 25.00000000000000400, 0.0000000000000000000 ) ) ;
#146 = PRODUCT ( 'Web Model 68375', 'Web Model 68375', '', ( #88 ) ) ;
#147 = DIRECTION ( 'NONE',  ( -2.081668171172168500E-016, 1.000000000000000000, -0.0000000000000000000 ) ) ;
#148 = ORIENTED_EDGE ( 'NONE', *, *, #117, .T. ) ;
#149 = CARTESIAN_POINT ( 'NONE',  ( 24.99999999999999600, 25.00000000000001100, 3.000000000000000000 ) ) ;
#150 = DATE_TIME_ROLE ( 'classification_date' ) ;
#151 = EDGE_LOOP ( 'NONE', ( #148, #230, #111, #8 ) ) ;
#152 = APPROVAL ( #153, 'UNSPECIFIED' ) ;
#153 = APPROVAL_STATUS ( 'not_yet_approved' ) ;
#154 = PERSON_AND_ORGANIZATION_ROLE ( 'design_owner' ) ;
#155 = ORIENTED_EDGE ( 'NONE', *, *, #179, .T. ) ;
#156 = APPROVAL_DATE_TIME ( #127, #135 ) ;
#157 = CC_DESIGN_DATE_AND_TIME_ASSIGNMENT ( #177, #211, ( #31 ) ) ;
#158 = COORDINATED_UNIVERSAL_TIME_OFFSET ( 5, 0, .BEHIND. ) ;
#159 = DIRECTION ( 'NONE',  ( -0.0000000000000000000, -0.0000000000000000000, -1.000000000000000000 ) ) ;
#160 = DIRECTION ( 'NONE',  ( 1.387778780781445400E-016, -1.000000000000000000, 0.0000000000000000000 ) ) ;
#161 = LINE ( 'NONE', #47, #164 ) ;
#162 = CARTESIAN_POINT ( 'NONE',  ( -25.00000000000000000, 25.00000000000000400, 3.000000000000000000 ) ) ;
#163 = DIRECTION ( 'NONE',  ( -0.0000000000000000000, -0.0000000000000000000, -1.000000000000000000 ) ) ;
#164 = VECTOR ( 'NONE', #173, 1000.000000000000000 ) ;
#165 = VERTEX_POINT ( 'NONE', #103 ) ;
#166 = APPLICATION_PROTOCOL_DEFINITION ( 'international standard', 'config_control_design', 1994, #207 ) ;
#167 = DIRECTION ( 'NONE',  ( 0.0000000000000000000, 0.0000000000000000000, 1.000000000000000000 ) ) ;
#168 = CC_DESIGN_APPROVAL ( #135, ( #19 ) ) ;
#169 = DIRECTION ( 'NONE',  ( 1.000000000000000000, 1.387778780781445700E-016, -0.0000000000000000000 ) ) ;
#170 = PERSON_AND_ORGANIZATION ( #68, #141 ) ;
#171 = LINE ( 'NONE', #131, #181 ) ;
#172 = VERTEX_POINT ( 'NONE', #221 ) ;
#173 = DIRECTION ( 'NONE',  ( -1.000000000000000000, -1.387778780781445700E-016, 0.0000000000000000000 ) ) ;
#174 = EDGE_CURVE ( 'NONE', #35, #110, #38, .T. ) ;
#175 = ORIENTED_EDGE ( 'NONE', *, *, #191, .T. ) ;
#176 = APPROVAL_ROLE ( '' ) ;
#177 = DATE_AND_TIME ( #44, #198 ) ;
#178 = ORIENTED_EDGE ( 'NONE', *, *, #6, .F. ) ;
#179 = EDGE_CURVE ( 'NONE', #172, #110, #134, .T. ) ;
#180 = PERSON_AND_ORGANIZATION ( #68, #141 ) ;
#181 = VECTOR ( 'NONE', #83, 1000.000000000000000 ) ;
#182 = CARTESIAN_POINT ( 'NONE',  ( 25.00000000000000700, -24.99999999999999300, 3.000000000000000000 ) ) ;
#183 = MANIFOLD_SOLID_BREP ( 'Extrude1', #71 ) ;
#184 = DIRECTION ( 'NONE',  ( -1.000000000000000000, -1.387778780781445400E-016, 0.0000000000000000000 ) ) ;
#185 = FACE_OUTER_BOUND ( 'NONE', #40, .T. ) ;
#186 = PRODUCT_RELATED_PRODUCT_CATEGORY ( 'detail', '', ( #146 ) ) ;
#187 = EDGE_LOOP ( 'NONE', ( #175, #77, #97, #62 ) ) ;
#188 = CARTESIAN_POINT ( 'NONE',  ( 24.99999999999999600, 25.00000000000001100, 3.000000000000000000 ) ) ;
#189 = SHAPE_DEFINITION_REPRESENTATION ( #30, #26 ) ;
#190 = LINE ( 'NONE', #27, #124 ) ;
#191 = EDGE_CURVE ( 'NONE', #24, #220, #199, .T. ) ;
#192 =( NAMED_UNIT ( * ) SI_UNIT ( $, .STERADIAN. ) SOLID_ANGLE_UNIT ( ) );
#193 = FACE_OUTER_BOUND ( 'NONE', #112, .T. ) ;
#194 = PRODUCT_DEFINITION_FORMATION_WITH_SPECIFIED_SOURCE ( 'ANY', '', #146, .NOT_KNOWN. ) ;
#195 = PERSON_AND_ORGANIZATION_ROLE ( 'creator' ) ;
#196 = PERSON_AND_ORGANIZATION_ROLE ( 'classification_officer' ) ;
#197 = SECURITY_CLASSIFICATION_LEVEL ( 'unclassified' ) ;
#198 = LOCAL_TIME ( 14, 51, 11.00000000000000000, #91 ) ;
#199 = LINE ( 'NONE', #13, #233 ) ;
#200 = EDGE_CURVE ( 'NONE', #220, #35, #73, .T. ) ;
#201 = AXIS2_PLACEMENT_3D ( 'NONE', #43, #167, #69 ) ;
#202 = CALENDAR_DATE ( 2017, 31, 1 ) ;
#203 = ORIENTED_EDGE ( 'NONE', *, *, #200, .T. ) ;
#204 = CC_DESIGN_PERSON_AND_ORGANIZATION_ASSIGNMENT ( #180, #137, ( #194 ) ) ;
#205 = CARTESIAN_POINT ( 'NONE',  ( -25.00000000000000000, 25.00000000000000400, 3.000000000000000000 ) ) ;
#206 = CALENDAR_DATE ( 2017, 31, 1 ) ;
#207 = APPLICATION_CONTEXT ( 'configuration controlled 3d designs of mechanical parts and assemblies' ) ;
#208 = DIRECTION ( 'NONE',  ( 1.000000000000000000, 1.387778780781445700E-016, -0.0000000000000000000 ) ) ;
#209 = UNCERTAINTY_MEASURE_WITH_UNIT (LENGTH_MEASURE( 1.000000000000000100E-005 ), #29, 'distance_accuracy_value', 'NONE');
#210 = ORIENTED_EDGE ( 'NONE', *, *, #14, .T. ) ;
#211 = DATE_TIME_ROLE ( 'creation_date' ) ;
#212 = DATE_AND_TIME ( #104, #82 ) ;
#213 = EDGE_CURVE ( 'NONE', #172, #108, #171, .T. ) ;
#214 = ADVANCED_FACE ( 'NONE', ( #185 ), #118, .F. ) ;
#215 = CC_DESIGN_PERSON_AND_ORGANIZATION_ASSIGNMENT ( #115, #66, ( #194 ) ) ;
#216 = APPROVAL_PERSON_ORGANIZATION ( #37, #89, #136 ) ;
#217 = AXIS2_PLACEMENT_3D ( 'NONE', #5, #76, #25 ) ;
#218 = LOCAL_TIME ( 14, 51, 11.00000000000000000, #225 ) ;
#219 = VECTOR ( 'NONE', #63, 1000.000000000000000 ) ;
#220 = VERTEX_POINT ( 'NONE', #42 ) ;
#221 = CARTESIAN_POINT ( 'NONE',  ( 24.99999999999999600, 25.00000000000001100, 3.000000000000000000 ) ) ;
#222 = DESIGN_CONTEXT ( 'detailed design', #67, 'design' ) ;
#223 = LINE ( 'NONE', #57, #128 ) ;
#224 = PLANE ( 'NONE',  #235 ) ;
#225 = COORDINATED_UNIVERSAL_TIME_OFFSET ( 5, 0, .BEHIND. ) ;
#226 = CARTESIAN_POINT ( 'NONE',  ( 25.00000000000000700, -24.99999999999999300, 0.0000000000000000000 ) ) ;
#227 = CARTESIAN_POINT ( 'NONE',  ( 24.99999999999999600, 25.00000000000001100, 0.0000000000000000000 ) ) ;
#228 = LOCAL_TIME ( 14, 51, 11.00000000000000000, #107 ) ;
#229 = APPLICATION_PROTOCOL_DEFINITION ( 'international standard', 'config_control_design', 1994, #67 ) ;
#230 = ORIENTED_EDGE ( 'NONE', *, *, #99, .T. ) ;
#231 = AXIS2_PLACEMENT_3D ( 'NONE', #41, #4, #126 ) ;
#232 = APPROVAL_DATE_TIME ( #212, #152 ) ;
#233 = VECTOR ( 'NONE', #133, 1000.000000000000000 ) ;
#234 = EDGE_CURVE ( 'NONE', #165, #35, #58, .T. ) ;
#235 = AXIS2_PLACEMENT_3D ( 'NONE', #61, #116, #132 ) ;
#236 = EDGE_CURVE ( 'NONE', #165, #172, #79, .T. ) ;
#237 = EDGE_CURVE ( 'NONE', #110, #24, #161, .T. ) ;
ENDSEC;
END-ISO-10303-21;
