ISO-10303-21;
HEADER;
FILE_DESCRIPTION (( 'STEP AP203' ),
    '1' );
FILE_NAME ('Web Model 47515.STEP',
    '2017-01-31T15:20:38',
    ( '' ),
    ( '' ),
    'SwSTEP 2.0',
    'SolidWorks 2016',
    '' );
FILE_SCHEMA (( 'CONFIG_CONTROL_DESIGN' ));
ENDSEC;

DATA;
#1 = LINE ( 'NONE', #16, #136 ) ;
#2 = DATE_AND_TIME ( #153, #80 ) ;
#3 = APPROVAL ( #60, 'UNSPECIFIED' ) ;
#4 = CC_DESIGN_APPROVAL ( #109, ( #47 ) ) ;
#5 = EDGE_CURVE ( 'NONE', #103, #55, #1, .T. ) ;
#6 = AXIS2_PLACEMENT_3D ( 'NONE', #38, #135, #124 ) ;
#7 = CARTESIAN_POINT ( 'NONE',  ( 0.0000000000000000000, 0.0000000000000000000, -2.000000000000000000 ) ) ;
#8 = CLOSED_SHELL ( 'NONE', ( #163, #26, #12, #86 ) ) ;
#9 = DIRECTION ( 'NONE',  ( 1.000000000000000000, 0.0000000000000000000, 0.0000000000000000000 ) ) ;
#10 = PERSON_AND_ORGANIZATION ( #59, #168 ) ;
#11 = CARTESIAN_POINT ( 'NONE',  ( 0.0000000000000000000, 0.0000000000000000000, -2.000000000000000000 ) ) ;
#12 = ADVANCED_FACE ( 'NONE', ( #63 ), #155, .F. ) ;
#13 = VERTEX_POINT ( 'NONE', #32 ) ;
#14 = LOCAL_TIME ( 10, 20, 38.00000000000000000, #129 ) ;
#15 = DATE_AND_TIME ( #49, #14 ) ;
#16 = CARTESIAN_POINT ( 'NONE',  ( 2.499999999999998700, 0.0000000000000000000, -2.000000000000000000 ) ) ;
#17 = DIRECTION ( 'NONE',  ( 0.0000000000000000000, 0.0000000000000000000, 1.000000000000000000 ) ) ;
#18 = DIRECTION ( 'NONE',  ( 1.000000000000000000, 0.0000000000000000000, 0.0000000000000000000 ) ) ;
#19 = CARTESIAN_POINT ( 'NONE',  ( 0.0000000000000000000, 0.0000000000000000000, 0.0000000000000000000 ) ) ;
#20 = COORDINATED_UNIVERSAL_TIME_OFFSET ( 5, 0, .BEHIND. ) ;
#21 = APPLICATION_PROTOCOL_DEFINITION ( 'international standard', 'config_control_design', 1994, #118 ) ;
#22 = DIRECTION ( 'NONE',  ( 1.000000000000000000, 0.0000000000000000000, 0.0000000000000000000 ) ) ;
#23 = CARTESIAN_POINT ( 'NONE',  ( 2.499999999999998700, 0.0000000000000000000, 0.0000000000000000000 ) ) ;
#24 = EDGE_CURVE ( 'NONE', #55, #66, #113, .T. ) ;
#25 = ORIENTED_EDGE ( 'NONE', *, *, #5, .T. ) ;
#26 = ADVANCED_FACE ( 'NONE', ( #169 ), #144, .T. ) ;
#27 = CIRCLE ( 'NONE', #42, 2.499999999999998700 ) ;
#28 = EDGE_LOOP ( 'NONE', ( #91, #46 ) ) ;
#29 = CC_DESIGN_DATE_AND_TIME_ASSIGNMENT ( #151, #64, ( #47 ) ) ;
#30 = PERSON_AND_ORGANIZATION_ROLE ( 'creator' ) ;
#31 = PERSON_AND_ORGANIZATION_ROLE ( 'classification_officer' ) ;
#32 = CARTESIAN_POINT ( 'NONE',  ( -2.499999999999998700, 3.061616997868381700E-016, -2.000000000000000000 ) ) ;
#33 = DATE_TIME_ROLE ( 'creation_date' ) ;
#34 = CARTESIAN_POINT ( 'NONE',  ( 0.0000000000000000000, 0.0000000000000000000, -2.000000000000000000 ) ) ;
#35 = EDGE_LOOP ( 'NONE', ( #89, #167, #127, #166 ) ) ;
#36 = PLANE ( 'NONE',  #143 ) ;
#37 = AXIS2_PLACEMENT_3D ( 'NONE', #116, #131, #62 ) ;
#38 = CARTESIAN_POINT ( 'NONE',  ( 0.0000000000000000000, 0.0000000000000000000, 0.0000000000000000000 ) ) ;
#39 = CIRCLE ( 'NONE', #85, 2.499999999999998700 ) ;
#40 = CC_DESIGN_SECURITY_CLASSIFICATION ( #47, ( #150 ) ) ;
#41 = DIRECTION ( 'NONE',  ( 0.0000000000000000000, 0.0000000000000000000, 1.000000000000000000 ) ) ;
#42 = AXIS2_PLACEMENT_3D ( 'NONE', #7, #133, #9 ) ;
#43 = FACE_OUTER_BOUND ( 'NONE', #35, .T. ) ;
#44 = PRODUCT_RELATED_PRODUCT_CATEGORY ( 'detail', '', ( #172 ) ) ;
#45 = EDGE_LOOP ( 'NONE', ( #119, #139 ) ) ;
#46 = ORIENTED_EDGE ( 'NONE', *, *, #75, .F. ) ;
#47 = SECURITY_CLASSIFICATION ( '', '', #170 ) ;
#48 = PERSON_AND_ORGANIZATION ( #59, #168 ) ;
#49 = CALENDAR_DATE ( 2017, 31, 1 ) ;
#50 = PRODUCT_DEFINITION ( 'UNKNOWN', '', #150, #175 ) ;
#51 = CC_DESIGN_PERSON_AND_ORGANIZATION_ASSIGNMENT ( #54, #31, ( #47 ) ) ;
#52 = CARTESIAN_POINT ( 'NONE',  ( -2.499999999999998700, 3.061616997868381700E-016, 0.0000000000000000000 ) ) ;
#53 = CALENDAR_DATE ( 2017, 31, 1 ) ;
#54 = PERSON_AND_ORGANIZATION ( #59, #168 ) ;
#55 = VERTEX_POINT ( 'NONE', #23 ) ;
#56 = CC_DESIGN_APPROVAL ( #3, ( #150 ) ) ;
#57 = DATE_AND_TIME ( #102, #79 ) ;
#58 = AXIS2_PLACEMENT_3D ( 'NONE', #11, #84, #22 ) ;
#59 = PERSON ( 'UNSPECIFIED', 'UNSPECIFIED', 'UNSPECIFIED', ('UNSPECIFIED'), ('UNSPECIFIED'), ('UNSPECIFIED') ) ;
#60 = APPROVAL_STATUS ( 'not_yet_approved' ) ;
#61 = FACE_OUTER_BOUND ( 'NONE', #45, .T. ) ;
#62 = DIRECTION ( 'NONE',  ( 1.000000000000000000, 0.0000000000000000000, -0.0000000000000000000 ) ) ;
#63 = FACE_OUTER_BOUND ( 'NONE', #28, .T. ) ;
#64 = DATE_TIME_ROLE ( 'classification_date' ) ;
#65 = DIRECTION ( 'NONE',  ( 1.000000000000000000, 0.0000000000000000000, 0.0000000000000000000 ) ) ;
#66 = VERTEX_POINT ( 'NONE', #52 ) ;
#67 = CC_DESIGN_PERSON_AND_ORGANIZATION_ASSIGNMENT ( #48, #121, ( #50 ) ) ;
#68 =( LENGTH_UNIT ( ) NAMED_UNIT ( * ) SI_UNIT ( .MILLI., .METRE. ) );
#69 = EDGE_CURVE ( 'NONE', #13, #66, #128, .T. ) ;
#70 = UNCERTAINTY_MEASURE_WITH_UNIT (LENGTH_MEASURE( 1.000000000000000100E-005 ), #68, 'distance_accuracy_value', 'NONE');
#71 = PRODUCT_DEFINITION_SHAPE ( 'NONE', 'NONE',  #50 ) ;
#72 = CC_DESIGN_APPROVAL ( #73, ( #50 ) ) ;
#73 = APPROVAL ( #81, 'UNSPECIFIED' ) ;
#74 = APPROVAL_PERSON_ORGANIZATION ( #141, #73, #96 ) ;
#75 = EDGE_CURVE ( 'NONE', #13, #103, #134, .T. ) ;
#76 = APPLICATION_PROTOCOL_DEFINITION ( 'international standard', 'config_control_design', 1994, #156 ) ;
#77 =( NAMED_UNIT ( * ) SI_UNIT ( $, .STERADIAN. ) SOLID_ANGLE_UNIT ( ) );
#78 = APPROVAL_ROLE ( '' ) ;
#79 = LOCAL_TIME ( 10, 20, 38.00000000000000000, #125 ) ;
#80 = LOCAL_TIME ( 10, 20, 38.00000000000000000, #20 ) ;
#81 = APPROVAL_STATUS ( 'not_yet_approved' ) ;
#82 = DIRECTION ( 'NONE',  ( 1.000000000000000000, 0.0000000000000000000, 0.0000000000000000000 ) ) ;
#83 = MANIFOLD_SOLID_BREP ( 'Extrude1', #8 ) ;
#84 = DIRECTION ( 'NONE',  ( 0.0000000000000000000, 0.0000000000000000000, 1.000000000000000000 ) ) ;
#85 = AXIS2_PLACEMENT_3D ( 'NONE', #94, #108, #110 ) ;
#86 = ADVANCED_FACE ( 'NONE', ( #61 ), #36, .T. ) ;
#87 = VECTOR ( 'NONE', #174, 1000.000000000000000 ) ;
#88 = APPROVAL_PERSON_ORGANIZATION ( #123, #109, #78 ) ;
#89 = ORIENTED_EDGE ( 'NONE', *, *, #117, .T. ) ;
#90 = SHAPE_DEFINITION_REPRESENTATION ( #71, #99 ) ;
#91 = ORIENTED_EDGE ( 'NONE', *, *, #117, .F. ) ;
#92 = CALENDAR_DATE ( 2017, 31, 1 ) ;
#93 =( NAMED_UNIT ( * ) PLANE_ANGLE_UNIT ( ) SI_UNIT ( $, .RADIAN. ) );
#94 = CARTESIAN_POINT ( 'NONE',  ( 0.0000000000000000000, 0.0000000000000000000, 0.0000000000000000000 ) ) ;
#95 = CC_DESIGN_DATE_AND_TIME_ASSIGNMENT ( #57, #33, ( #50 ) ) ;
#96 = APPROVAL_ROLE ( '' ) ;
#97 = EDGE_CURVE ( 'NONE', #66, #55, #39, .T. ) ;
#98 = PERSON_AND_ORGANIZATION ( #59, #168 ) ;
#99 = ADVANCED_BREP_SHAPE_REPRESENTATION ( 'Web Model 47515', ( #83, #157 ), #112 ) ;
#100 = CARTESIAN_POINT ( 'NONE',  ( 0.0000000000000000000, 0.0000000000000000000, -2.000000000000000000 ) ) ;
#101 = APPROVAL_DATE_TIME ( #138, #73 ) ;
#102 = CALENDAR_DATE ( 2017, 31, 1 ) ;
#103 = VERTEX_POINT ( 'NONE', #145 ) ;
#104 = AXIS2_PLACEMENT_3D ( 'NONE', #100, #41, #82 ) ;
#105 = PERSON_AND_ORGANIZATION ( #59, #168 ) ;
#106 = ORIENTED_EDGE ( 'NONE', *, *, #75, .T. ) ;
#107 = APPROVAL_ROLE ( '' ) ;
#108 = DIRECTION ( 'NONE',  ( 0.0000000000000000000, 0.0000000000000000000, 1.000000000000000000 ) ) ;
#109 = APPROVAL ( #132, 'UNSPECIFIED' ) ;
#110 = DIRECTION ( 'NONE',  ( 1.000000000000000000, 0.0000000000000000000, 0.0000000000000000000 ) ) ;
#111 = PERSON_AND_ORGANIZATION_ROLE ( 'design_owner' ) ;
#112 =( GEOMETRIC_REPRESENTATION_CONTEXT ( 3 ) GLOBAL_UNCERTAINTY_ASSIGNED_CONTEXT ( ( #70 ) ) GLOBAL_UNIT_ASSIGNED_CONTEXT ( ( #68, #93, #77 ) ) REPRESENTATION_CONTEXT ( 'NONE', 'WORKASPACE' ) );
#113 = CIRCLE ( 'NONE', #6, 2.499999999999998700 ) ;
#114 = COORDINATED_UNIVERSAL_TIME_OFFSET ( 5, 0, .BEHIND. ) ;
#115 = AXIS2_PLACEMENT_3D ( 'NONE', #34, #17, #18 ) ;
#116 = CARTESIAN_POINT ( 'NONE',  ( 0.0000000000000000000, 0.0000000000000000000, -2.000000000000000000 ) ) ;
#117 = EDGE_CURVE ( 'NONE', #103, #13, #27, .T. ) ;
#118 = APPLICATION_CONTEXT ( 'configuration controlled 3d designs of mechanical parts and assemblies' ) ;
#119 = ORIENTED_EDGE ( 'NONE', *, *, #24, .T. ) ;
#120 = MECHANICAL_CONTEXT ( 'NONE', #156, 'mechanical' ) ;
#121 = PERSON_AND_ORGANIZATION_ROLE ( 'creator' ) ;
#122 = EDGE_LOOP ( 'NONE', ( #162, #106, #25, #160 ) ) ;
#123 = PERSON_AND_ORGANIZATION ( #59, #168 ) ;
#124 = DIRECTION ( 'NONE',  ( 1.000000000000000000, 0.0000000000000000000, 0.0000000000000000000 ) ) ;
#125 = COORDINATED_UNIVERSAL_TIME_OFFSET ( 5, 0, .BEHIND. ) ;
#126 = LOCAL_TIME ( 10, 20, 38.00000000000000000, #159 ) ;
#127 = ORIENTED_EDGE ( 'NONE', *, *, #24, .F. ) ;
#128 = LINE ( 'NONE', #161, #87 ) ;
#129 = COORDINATED_UNIVERSAL_TIME_OFFSET ( 5, 0, .BEHIND. ) ;
#130 = DIRECTION ( 'NONE',  ( 0.0000000000000000000, 0.0000000000000000000, 1.000000000000000000 ) ) ;
#131 = DIRECTION ( 'NONE',  ( 0.0000000000000000000, 0.0000000000000000000, 1.000000000000000000 ) ) ;
#132 = APPROVAL_STATUS ( 'not_yet_approved' ) ;
#133 = DIRECTION ( 'NONE',  ( 0.0000000000000000000, 0.0000000000000000000, 1.000000000000000000 ) ) ;
#134 = CIRCLE ( 'NONE', #104, 2.499999999999998700 ) ;
#135 = DIRECTION ( 'NONE',  ( 0.0000000000000000000, 0.0000000000000000000, 1.000000000000000000 ) ) ;
#136 = VECTOR ( 'NONE', #142, 1000.000000000000000 ) ;
#137 = CC_DESIGN_PERSON_AND_ORGANIZATION_ASSIGNMENT ( #98, #152, ( #150 ) ) ;
#138 = DATE_AND_TIME ( #53, #148 ) ;
#139 = ORIENTED_EDGE ( 'NONE', *, *, #97, .T. ) ;
#140 = APPROVAL_DATE_TIME ( #2, #109 ) ;
#141 = PERSON_AND_ORGANIZATION ( #59, #168 ) ;
#142 = DIRECTION ( 'NONE',  ( 0.0000000000000000000, 0.0000000000000000000, 1.000000000000000000 ) ) ;
#143 = AXIS2_PLACEMENT_3D ( 'NONE', #154, #130, #146 ) ;
#144 = CYLINDRICAL_SURFACE ( 'NONE', #58, 2.499999999999998700 ) ;
#145 = CARTESIAN_POINT ( 'NONE',  ( 2.499999999999998700, 0.0000000000000000000, -2.000000000000000000 ) ) ;
#146 = DIRECTION ( 'NONE',  ( 1.000000000000000000, 0.0000000000000000000, -0.0000000000000000000 ) ) ;
#147 = PERSON_AND_ORGANIZATION ( #59, #168 ) ;
#148 = LOCAL_TIME ( 10, 20, 38.00000000000000000, #114 ) ;
#149 = APPROVAL_PERSON_ORGANIZATION ( #147, #3, #107 ) ;
#150 = PRODUCT_DEFINITION_FORMATION_WITH_SPECIFIED_SOURCE ( 'ANY', '', #172, .NOT_KNOWN. ) ;
#151 = DATE_AND_TIME ( #92, #126 ) ;
#152 = PERSON_AND_ORGANIZATION_ROLE ( 'design_supplier' ) ;
#153 = CALENDAR_DATE ( 2017, 31, 1 ) ;
#154 = CARTESIAN_POINT ( 'NONE',  ( 0.0000000000000000000, 0.0000000000000000000, 0.0000000000000000000 ) ) ;
#155 = PLANE ( 'NONE',  #37 ) ;
#156 = APPLICATION_CONTEXT ( 'configuration controlled 3d designs of mechanical parts and assemblies' ) ;
#157 = AXIS2_PLACEMENT_3D ( 'NONE', #19, #158, #65 ) ;
#158 = DIRECTION ( 'NONE',  ( 0.0000000000000000000, 0.0000000000000000000, 1.000000000000000000 ) ) ;
#159 = COORDINATED_UNIVERSAL_TIME_OFFSET ( 5, 0, .BEHIND. ) ;
#160 = ORIENTED_EDGE ( 'NONE', *, *, #97, .F. ) ;
#161 = CARTESIAN_POINT ( 'NONE',  ( -2.499999999999998700, 3.061616997868381700E-016, -2.000000000000000000 ) ) ;
#162 = ORIENTED_EDGE ( 'NONE', *, *, #69, .F. ) ;
#163 = ADVANCED_FACE ( 'NONE', ( #43 ), #171, .T. ) ;
#164 = CC_DESIGN_PERSON_AND_ORGANIZATION_ASSIGNMENT ( #10, #30, ( #150 ) ) ;
#165 = APPROVAL_DATE_TIME ( #15, #3 ) ;
#166 = ORIENTED_EDGE ( 'NONE', *, *, #5, .F. ) ;
#167 = ORIENTED_EDGE ( 'NONE', *, *, #69, .T. ) ;
#168 = ORGANIZATION ( 'UNSPECIFIED', 'UNSPECIFIED', '' ) ;
#169 = FACE_OUTER_BOUND ( 'NONE', #122, .T. ) ;
#170 = SECURITY_CLASSIFICATION_LEVEL ( 'unclassified' ) ;
#171 = CYLINDRICAL_SURFACE ( 'NONE', #115, 2.499999999999998700 ) ;
#172 = PRODUCT ( 'Web Model 47515', 'Web Model 47515', '', ( #120 ) ) ;
#173 = CC_DESIGN_PERSON_AND_ORGANIZATION_ASSIGNMENT ( #105, #111, ( #172 ) ) ;
#174 = DIRECTION ( 'NONE',  ( 0.0000000000000000000, 0.0000000000000000000, 1.000000000000000000 ) ) ;
#175 = DESIGN_CONTEXT ( 'detailed design', #118, 'design' ) ;
ENDSEC;
END-ISO-10303-21;
