ISO-10303-21;
HEADER;
FILE_DESCRIPTION (( 'STEP AP203' ),
    '1' );
FILE_NAME ('Web Model 43847_43847.step',
    '2018-03-12T20:48:16',
    ( '' ),
    ( '' ),
    'SwSTEP 2.0',
    'SolidWorks 2016',
    '' );
FILE_SCHEMA (( 'CONFIG_CONTROL_DESIGN' ));
ENDSEC;

DATA;
#1 = PRODUCT_DEFINITION_SHAPE ( 'NONE', 'NONE',  #15 ) ;
#2 = LINE ( 'NONE', #60, #17 ) ;
#3 = ORIENTED_EDGE ( 'NONE', *, *, #10, .T. ) ;
#4 = EDGE_CURVE ( 'NONE', #33, #52, #193, .T. ) ;
#5 = VERTEX_POINT ( 'NONE', #31 ) ;
#6 = CARTESIAN_POINT ( 'NONE',  ( 0.0000000000000000000, 0.0000000000000000000, 0.0000000000000000000 ) ) ;
#7 = DIRECTION ( 'NONE',  ( 0.0000000000000000000, -1.000000000000000000, 0.0000000000000000000 ) ) ;
#8 = APPROVAL_DATE_TIME ( #27, #36 ) ;
#9 = ORIENTED_EDGE ( 'NONE', *, *, #4, .T. ) ;
#10 = EDGE_CURVE ( 'NONE', #168, #33, #88, .T. ) ;
#11 = PERSON_AND_ORGANIZATION_ROLE ( 'creator' ) ;
#12 = VECTOR ( 'NONE', #227, 1000.000000000000000 ) ;
#13 = PERSON_AND_ORGANIZATION_ROLE ( 'creator' ) ;
#14 = ORIENTED_EDGE ( 'NONE', *, *, #28, .F. ) ;
#15 = PRODUCT_DEFINITION ( 'UNKNOWN', '', #72, #47 ) ;
#16 = EDGE_CURVE ( 'NONE', #24, #195, #205, .T. ) ;
#17 = VECTOR ( 'NONE', #200, 1000.000000000000000 ) ;
#18 = CC_DESIGN_PERSON_AND_ORGANIZATION_ASSIGNMENT ( #144, #11, ( #72 ) ) ;
#19 = DIRECTION ( 'NONE',  ( 1.000000000000000000, 0.0000000000000000000, 0.0000000000000000000 ) ) ;
#20 = EDGE_LOOP ( 'NONE', ( #138, #14, #202, #107 ) ) ;
#21 = DIRECTION ( 'NONE',  ( 0.0000000000000000000, 0.0000000000000000000, -1.000000000000000000 ) ) ;
#22 = DIRECTION ( 'NONE',  ( -0.0000000000000000000, 1.000000000000000000, 2.048885995248197400E-016 ) ) ;
#23 = LINE ( 'NONE', #59, #12 ) ;
#24 = VERTEX_POINT ( 'NONE', #131 ) ;
#25 = APPROVAL ( #213, 'UNSPECIFIED' ) ;
#26 = CARTESIAN_POINT ( 'NONE',  ( -3.000000000000000000, -6.350000000000000500, 6.350000000000002300 ) ) ;
#27 = DATE_AND_TIME ( #231, #153 ) ;
#28 = EDGE_CURVE ( 'NONE', #52, #5, #51, .T. ) ;
#29 = PRODUCT ( 'Web Model 43847_43847', 'Web Model 43847_43847', '', ( #93 ) ) ;
#30 = LINE ( 'NONE', #53, #79 ) ;
#31 = CARTESIAN_POINT ( 'NONE',  ( -3.000000000000000000, -6.350000000000000500, -6.350000000000002300 ) ) ;
#32 = LINE ( 'NONE', #210, #142 ) ;
#33 = VERTEX_POINT ( 'NONE', #83 ) ;
#34 = ORIENTED_EDGE ( 'NONE', *, *, #106, .F. ) ;
#35 = CARTESIAN_POINT ( 'NONE',  ( 3.000000000000000000, -6.350000000000000500, 6.350000000000002300 ) ) ;
#36 = APPROVAL ( #159, 'UNSPECIFIED' ) ;
#37 = PERSON_AND_ORGANIZATION ( #68, #104 ) ;
#38 = PERSON_AND_ORGANIZATION ( #68, #104 ) ;
#39 = ORIENTED_EDGE ( 'NONE', *, *, #174, .F. ) ;
#40 = ADVANCED_FACE ( 'NONE', ( #134 ), #148, .F. ) ;
#41 = PERSON_AND_ORGANIZATION_ROLE ( 'classification_officer' ) ;
#42 = LOCAL_TIME ( 16, 48, 16.00000000000000000, #84 ) ;
#43 = ORIENTED_EDGE ( 'NONE', *, *, #170, .T. ) ;
#44 = APPLICATION_CONTEXT ( 'configuration controlled 3d designs of mechanical parts and assemblies' ) ;
#45 = APPROVAL_ROLE ( '' ) ;
#46 = VECTOR ( 'NONE', #21, 1000.000000000000000 ) ;
#47 = DESIGN_CONTEXT ( 'detailed design', #44, 'design' ) ;
#48 = CC_DESIGN_DATE_AND_TIME_ASSIGNMENT ( #201, #194, ( #15 ) ) ;
#49 = CC_DESIGN_DATE_AND_TIME_ASSIGNMENT ( #97, #215, ( #64 ) ) ;
#50 = APPROVAL_PERSON_ORGANIZATION ( #196, #36, #124 ) ;
#51 = LINE ( 'NONE', #57, #115 ) ;
#52 = VERTEX_POINT ( 'NONE', #119 ) ;
#53 = CARTESIAN_POINT ( 'NONE',  ( 3.000000000000000000, 6.349999999999998800, -6.349999999999999600 ) ) ;
#54 = DIRECTION ( 'NONE',  ( -1.000000000000000000, -0.0000000000000000000, -0.0000000000000000000 ) ) ;
#55 = CALENDAR_DATE ( 2018, 12, 3 ) ;
#56 = ORIENTED_EDGE ( 'NONE', *, *, #170, .F. ) ;
#57 = CARTESIAN_POINT ( 'NONE',  ( 3.000000000000000000, -6.350000000000000500, -6.350000000000002300 ) ) ;
#58 = EDGE_CURVE ( 'NONE', #195, #5, #127, .T. ) ;
#59 = CARTESIAN_POINT ( 'NONE',  ( 3.000000000000000000, 6.349999999999998800, 6.349999999999999600 ) ) ;
#60 = CARTESIAN_POINT ( 'NONE',  ( 3.000000000000000000, 6.349999999999998800, 6.349999999999999600 ) ) ;
#61 = EDGE_LOOP ( 'NONE', ( #43, #116, #34, #191 ) ) ;
#62 = CARTESIAN_POINT ( 'NONE',  ( -3.000000000000000000, 6.349999999999998800, 6.349999999999999600 ) ) ;
#63 = EDGE_CURVE ( 'NONE', #109, #137, #30, .T. ) ;
#64 = SECURITY_CLASSIFICATION ( '', '', #235 ) ;
#65 = VECTOR ( 'NONE', #132, 1000.000000000000000 ) ;
#66 = ADVANCED_FACE ( 'NONE', ( #190 ), #102, .F. ) ;
#67 = EDGE_LOOP ( 'NONE', ( #95, #173, #161, #181 ) ) ;
#68 = PERSON ( 'UNSPECIFIED', 'UNSPECIFIED', 'UNSPECIFIED', ('UNSPECIFIED'), ('UNSPECIFIED'), ('UNSPECIFIED') ) ;
#69 = APPROVAL_ROLE ( '' ) ;
#70 = FACE_OUTER_BOUND ( 'NONE', #112, .T. ) ;
#71 = ORIENTED_EDGE ( 'NONE', *, *, #106, .T. ) ;
#72 = PRODUCT_DEFINITION_FORMATION_WITH_SPECIFIED_SOURCE ( 'ANY', '', #29, .NOT_KNOWN. ) ;
#73 = VECTOR ( 'NONE', #105, 1000.000000000000000 ) ;
#74 = PLANE ( 'NONE',  #217 ) ;
#75 = DIRECTION ( 'NONE',  ( 0.0000000000000000000, -1.000000000000000000, 2.048885995248197400E-016 ) ) ;
#76 = CARTESIAN_POINT ( 'NONE',  ( 3.000000000000000000, -6.350000000000000500, 6.350000000000002300 ) ) ;
#77 = EDGE_CURVE ( 'NONE', #109, #168, #23, .T. ) ;
#78 = DIRECTION ( 'NONE',  ( -1.000000000000000000, -0.0000000000000000000, -0.0000000000000000000 ) ) ;
#79 = VECTOR ( 'NONE', #78, 1000.000000000000000 ) ;
#80 =( NAMED_UNIT ( * ) PLANE_ANGLE_UNIT ( ) SI_UNIT ( $, .RADIAN. ) );
#81 = CC_DESIGN_PERSON_AND_ORGANIZATION_ASSIGNMENT ( #37, #41, ( #64 ) ) ;
#82 = CARTESIAN_POINT ( 'NONE',  ( 3.000000000000000000, 6.349999999999998800, 6.349999999999999600 ) ) ;
#83 = CARTESIAN_POINT ( 'NONE',  ( 3.000000000000000000, -6.350000000000000500, 6.350000000000002300 ) ) ;
#84 = COORDINATED_UNIVERSAL_TIME_OFFSET ( 5, 0, .BEHIND. ) ;
#85 = PERSON_AND_ORGANIZATION ( #68, #104 ) ;
#86 = ADVANCED_FACE ( 'NONE', ( #70 ), #130, .T. ) ;
#87 = FACE_OUTER_BOUND ( 'NONE', #67, .T. ) ;
#88 = LINE ( 'NONE', #82, #197 ) ;
#89 = DIRECTION ( 'NONE',  ( 0.0000000000000000000, 1.000000000000000000, -2.048885995248197400E-016 ) ) ;
#90 = APPLICATION_CONTEXT ( 'configuration controlled 3d designs of mechanical parts and assemblies' ) ;
#91 = APPROVAL_DATE_TIME ( #125, #224 ) ;
#92 = APPROVAL_PERSON_ORGANIZATION ( #178, #25, #45 ) ;
#93 = MECHANICAL_CONTEXT ( 'NONE', #90, 'mechanical' ) ;
#94 = FACE_OUTER_BOUND ( 'NONE', #158, .T. ) ;
#95 = ORIENTED_EDGE ( 'NONE', *, *, #174, .T. ) ;
#96 = AXIS2_PLACEMENT_3D ( 'NONE', #149, #98, #222 ) ;
#97 = DATE_AND_TIME ( #111, #219 ) ;
#98 = DIRECTION ( 'NONE',  ( 0.0000000000000000000, -2.048885995248197400E-016, 1.000000000000000000 ) ) ;
#99 = DIRECTION ( 'NONE',  ( 0.0000000000000000000, 0.0000000000000000000, 1.000000000000000000 ) ) ;
#100 = ORIENTED_EDGE ( 'NONE', *, *, #113, .T. ) ;
#101 = AXIS2_PLACEMENT_3D ( 'NONE', #154, #208, #89 ) ;
#102 = PLANE ( 'NONE',  #203 ) ;
#103 = PLANE ( 'NONE',  #101 ) ;
#104 = ORGANIZATION ( 'UNSPECIFIED', 'UNSPECIFIED', '' ) ;
#105 = DIRECTION ( 'NONE',  ( -0.0000000000000000000, -0.0000000000000000000, 1.000000000000000000 ) ) ;
#106 = EDGE_CURVE ( 'NONE', #52, #109, #155, .T. ) ;
#107 = ORIENTED_EDGE ( 'NONE', *, *, #128, .T. ) ;
#108 = CC_DESIGN_APPROVAL ( #224, ( #64 ) ) ;
#109 = VERTEX_POINT ( 'NONE', #165 ) ;
#110 = APPLICATION_PROTOCOL_DEFINITION ( 'international standard', 'config_control_design', 1994, #44 ) ;
#111 = CALENDAR_DATE ( 2018, 12, 3 ) ;
#112 = EDGE_LOOP ( 'NONE', ( #3, #9, #71, #188 ) ) ;
#113 = EDGE_CURVE ( 'NONE', #168, #24, #2, .T. ) ;
#114 = DIRECTION ( 'NONE',  ( -1.000000000000000000, -0.0000000000000000000, -0.0000000000000000000 ) ) ;
#115 = VECTOR ( 'NONE', #54, 1000.000000000000000 ) ;
#116 = ORIENTED_EDGE ( 'NONE', *, *, #63, .F. ) ;
#117 = ADVANCED_BREP_SHAPE_REPRESENTATION ( 'Web Model 43847_43847', ( #216, #198 ), #228 ) ;
#118 = CARTESIAN_POINT ( 'NONE',  ( -3.000000000000000000, -6.350000000000000500, 6.350000000000002300 ) ) ;
#119 = CARTESIAN_POINT ( 'NONE',  ( 3.000000000000000000, -6.350000000000000500, -6.350000000000002300 ) ) ;
#120 = DIRECTION ( 'NONE',  ( 0.0000000000000000000, -0.0000000000000000000, 1.000000000000000000 ) ) ;
#121 = ADVANCED_FACE ( 'NONE', ( #94 ), #74, .F. ) ;
#122 = CALENDAR_DATE ( 2018, 12, 3 ) ;
#123 = ORIENTED_EDGE ( 'NONE', *, *, #10, .F. ) ;
#124 = APPROVAL_ROLE ( '' ) ;
#125 = DATE_AND_TIME ( #55, #152 ) ;
#126 = APPLICATION_PROTOCOL_DEFINITION ( 'international standard', 'config_control_design', 1994, #90 ) ;
#127 = LINE ( 'NONE', #118, #46 ) ;
#128 = EDGE_CURVE ( 'NONE', #33, #195, #162, .T. ) ;
#129 = DIRECTION ( 'NONE',  ( 0.0000000000000000000, 0.0000000000000000000, -1.000000000000000000 ) ) ;
#130 = PLANE ( 'NONE',  #150 ) ;
#131 = CARTESIAN_POINT ( 'NONE',  ( -3.000000000000000000, 6.349999999999998800, 6.349999999999999600 ) ) ;
#132 = DIRECTION ( 'NONE',  ( 0.0000000000000000000, -1.000000000000000000, 2.048885995248197400E-016 ) ) ;
#133 = COORDINATED_UNIVERSAL_TIME_OFFSET ( 5, 0, .BEHIND. ) ;
#134 = FACE_OUTER_BOUND ( 'NONE', #61, .T. ) ;
#135 = COORDINATED_UNIVERSAL_TIME_OFFSET ( 5, 0, .BEHIND. ) ;
#136 = VECTOR ( 'NONE', #114, 1000.000000000000000 ) ;
#137 = VERTEX_POINT ( 'NONE', #183 ) ;
#138 = ORIENTED_EDGE ( 'NONE', *, *, #58, .T. ) ;
#139 = PERSON_AND_ORGANIZATION_ROLE ( 'design_supplier' ) ;
#140 = AXIS2_PLACEMENT_3D ( 'NONE', #230, #7, #171 ) ;
#141 = CALENDAR_DATE ( 2018, 12, 3 ) ;
#142 = VECTOR ( 'NONE', #22, 1000.000000000000000 ) ;
#143 = ORIENTED_EDGE ( 'NONE', *, *, #58, .F. ) ;
#144 = PERSON_AND_ORGANIZATION ( #68, #104 ) ;
#145 = DIRECTION ( 'NONE',  ( 0.0000000000000000000, 0.0000000000000000000, -1.000000000000000000 ) ) ;
#146 = VECTOR ( 'NONE', #185, 1000.000000000000000 ) ;
#147 = DIRECTION ( 'NONE',  ( -0.0000000000000000000, 1.000000000000000000, 2.048885995248197400E-016 ) ) ;
#148 = PLANE ( 'NONE',  #96 ) ;
#149 = CARTESIAN_POINT ( 'NONE',  ( 3.000000000000000000, 6.349999999999998800, -6.349999999999999600 ) ) ;
#150 = AXIS2_PLACEMENT_3D ( 'NONE', #220, #204, #129 ) ;
#151 = CARTESIAN_POINT ( 'NONE',  ( -3.000000000000000000, 6.349999999999998800, 6.349999999999999600 ) ) ;
#152 = LOCAL_TIME ( 16, 48, 16.00000000000000000, #135 ) ;
#153 = LOCAL_TIME ( 16, 48, 16.00000000000000000, #214 ) ;
#154 = CARTESIAN_POINT ( 'NONE',  ( 3.000000000000000000, 6.349999999999998800, 6.349999999999999600 ) ) ;
#155 = LINE ( 'NONE', #199, #164 ) ;
#156 = ADVANCED_FACE ( 'NONE', ( #209 ), #103, .F. ) ;
#157 =( LENGTH_UNIT ( ) NAMED_UNIT ( * ) SI_UNIT ( .MILLI., .METRE. ) );
#158 = EDGE_LOOP ( 'NONE', ( #179, #39, #56, #143 ) ) ;
#159 = APPROVAL_STATUS ( 'not_yet_approved' ) ;
#160 = ADVANCED_FACE ( 'NONE', ( #87 ), #172, .F. ) ;
#161 = ORIENTED_EDGE ( 'NONE', *, *, #77, .F. ) ;
#162 = LINE ( 'NONE', #76, #136 ) ;
#163 = CC_DESIGN_PERSON_AND_ORGANIZATION_ASSIGNMENT ( #38, #176, ( #29 ) ) ;
#164 = VECTOR ( 'NONE', #147, 1000.000000000000000 ) ;
#165 = CARTESIAN_POINT ( 'NONE',  ( 3.000000000000000000, 6.349999999999998800, -6.349999999999999600 ) ) ;
#166 = PRODUCT_RELATED_PRODUCT_CATEGORY ( 'detail', '', ( #29 ) ) ;
#167 = LOCAL_TIME ( 16, 48, 16.00000000000000000, #133 ) ;
#168 = VERTEX_POINT ( 'NONE', #192 ) ;
#169 = CARTESIAN_POINT ( 'NONE',  ( 3.000000000000000000, -6.350000000000000500, 6.350000000000002300 ) ) ;
#170 = EDGE_CURVE ( 'NONE', #5, #137, #32, .T. ) ;
#171 = DIRECTION ( 'NONE',  ( 0.0000000000000000000, -0.0000000000000000000, -1.000000000000000000 ) ) ;
#172 = PLANE ( 'NONE',  #140 ) ;
#173 = ORIENTED_EDGE ( 'NONE', *, *, #113, .F. ) ;
#174 = EDGE_CURVE ( 'NONE', #137, #24, #186, .T. ) ;
#175 = APPROVAL_DATE_TIME ( #226, #25 ) ;
#176 = PERSON_AND_ORGANIZATION_ROLE ( 'design_owner' ) ;
#177 = COORDINATED_UNIVERSAL_TIME_OFFSET ( 5, 0, .BEHIND. ) ;
#178 = PERSON_AND_ORGANIZATION ( #68, #104 ) ;
#179 = ORIENTED_EDGE ( 'NONE', *, *, #16, .F. ) ;
#180 = PERSON_AND_ORGANIZATION ( #68, #104 ) ;
#181 = ORIENTED_EDGE ( 'NONE', *, *, #63, .T. ) ;
#182 = CC_DESIGN_APPROVAL ( #25, ( #15 ) ) ;
#183 = CARTESIAN_POINT ( 'NONE',  ( -3.000000000000000000, 6.349999999999998800, -6.349999999999999600 ) ) ;
#184 = APPROVAL_PERSON_ORGANIZATION ( #180, #224, #69 ) ;
#185 = DIRECTION ( 'NONE',  ( 0.0000000000000000000, 0.0000000000000000000, -1.000000000000000000 ) ) ;
#186 = LINE ( 'NONE', #62, #73 ) ;
#187 = CC_DESIGN_PERSON_AND_ORGANIZATION_ASSIGNMENT ( #85, #13, ( #15 ) ) ;
#188 = ORIENTED_EDGE ( 'NONE', *, *, #77, .T. ) ;
#189 = DIRECTION ( 'NONE',  ( -0.0000000000000000000, 1.000000000000000000, 0.0000000000000000000 ) ) ;
#190 = FACE_OUTER_BOUND ( 'NONE', #20, .T. ) ;
#191 = ORIENTED_EDGE ( 'NONE', *, *, #28, .T. ) ;
#192 = CARTESIAN_POINT ( 'NONE',  ( 3.000000000000000000, 6.349999999999998800, 6.349999999999999600 ) ) ;
#193 = LINE ( 'NONE', #169, #146 ) ;
#194 = DATE_TIME_ROLE ( 'creation_date' ) ;
#195 = VERTEX_POINT ( 'NONE', #26 ) ;
#196 = PERSON_AND_ORGANIZATION ( #68, #104 ) ;
#197 = VECTOR ( 'NONE', #75, 1000.000000000000000 ) ;
#198 = AXIS2_PLACEMENT_3D ( 'NONE', #6, #99, #234 ) ;
#199 = CARTESIAN_POINT ( 'NONE',  ( 3.000000000000000000, 6.349999999999998800, -6.349999999999999600 ) ) ;
#200 = DIRECTION ( 'NONE',  ( -1.000000000000000000, -0.0000000000000000000, -0.0000000000000000000 ) ) ;
#201 = DATE_AND_TIME ( #141, #42 ) ;
#202 = ORIENTED_EDGE ( 'NONE', *, *, #4, .F. ) ;
#203 = AXIS2_PLACEMENT_3D ( 'NONE', #35, #189, #120 ) ;
#204 = DIRECTION ( 'NONE',  ( 1.000000000000000000, 0.0000000000000000000, 0.0000000000000000000 ) ) ;
#205 = LINE ( 'NONE', #151, #65 ) ;
#206 = CLOSED_SHELL ( 'NONE', ( #156, #66, #40, #160, #86, #121 ) ) ;
#207 = UNCERTAINTY_MEASURE_WITH_UNIT (LENGTH_MEASURE( 1.000000000000000100E-005 ), #157, 'distance_accuracy_value', 'NONE');
#208 = DIRECTION ( 'NONE',  ( 0.0000000000000000000, -2.048885995248197400E-016, -1.000000000000000000 ) ) ;
#209 = FACE_OUTER_BOUND ( 'NONE', #237, .T. ) ;
#210 = CARTESIAN_POINT ( 'NONE',  ( -3.000000000000000000, 6.349999999999998800, -6.349999999999999600 ) ) ;
#211 = APPROVAL_STATUS ( 'not_yet_approved' ) ;
#212 = CC_DESIGN_PERSON_AND_ORGANIZATION_ASSIGNMENT ( #225, #139, ( #72 ) ) ;
#213 = APPROVAL_STATUS ( 'not_yet_approved' ) ;
#214 = COORDINATED_UNIVERSAL_TIME_OFFSET ( 5, 0, .BEHIND. ) ;
#215 = DATE_TIME_ROLE ( 'classification_date' ) ;
#216 = MANIFOLD_SOLID_BREP ( 'Boss-Extrude1', #206 ) ;
#217 = AXIS2_PLACEMENT_3D ( 'NONE', #221, #19, #145 ) ;
#218 = SHAPE_DEFINITION_REPRESENTATION ( #1, #117 ) ;
#219 = LOCAL_TIME ( 16, 48, 16.00000000000000000, #177 ) ;
#220 = CARTESIAN_POINT ( 'NONE',  ( 3.000000000000000000, 0.0000000000000000000, 0.0000000000000000000 ) ) ;
#221 = CARTESIAN_POINT ( 'NONE',  ( -3.000000000000000000, 0.0000000000000000000, 0.0000000000000000000 ) ) ;
#222 = DIRECTION ( 'NONE',  ( 0.0000000000000000000, -1.000000000000000000, -2.048885995248197400E-016 ) ) ;
#223 =( NAMED_UNIT ( * ) SI_UNIT ( $, .STERADIAN. ) SOLID_ANGLE_UNIT ( ) );
#224 = APPROVAL ( #211, 'UNSPECIFIED' ) ;
#225 = PERSON_AND_ORGANIZATION ( #68, #104 ) ;
#226 = DATE_AND_TIME ( #122, #167 ) ;
#227 = DIRECTION ( 'NONE',  ( -0.0000000000000000000, -0.0000000000000000000, 1.000000000000000000 ) ) ;
#228 =( GEOMETRIC_REPRESENTATION_CONTEXT ( 3 ) GLOBAL_UNCERTAINTY_ASSIGNED_CONTEXT ( ( #207 ) ) GLOBAL_UNIT_ASSIGNED_CONTEXT ( ( #157, #80, #223 ) ) REPRESENTATION_CONTEXT ( 'NONE', 'WORKASPACE' ) );
#229 = ORIENTED_EDGE ( 'NONE', *, *, #128, .F. ) ;
#230 = CARTESIAN_POINT ( 'NONE',  ( 3.000000000000000000, 6.349999999999998800, 6.349999999999999600 ) ) ;
#231 = CALENDAR_DATE ( 2018, 12, 3 ) ;
#232 = ORIENTED_EDGE ( 'NONE', *, *, #16, .T. ) ;
#233 = CC_DESIGN_APPROVAL ( #36, ( #72 ) ) ;
#234 = DIRECTION ( 'NONE',  ( 1.000000000000000000, 0.0000000000000000000, 0.0000000000000000000 ) ) ;
#235 = SECURITY_CLASSIFICATION_LEVEL ( 'unclassified' ) ;
#236 = CC_DESIGN_SECURITY_CLASSIFICATION ( #64, ( #72 ) ) ;
#237 = EDGE_LOOP ( 'NONE', ( #232, #229, #123, #100 ) ) ;
ENDSEC;
END-ISO-10303-21;
