ISO-10303-21;
HEADER;
FILE_DESCRIPTION (( 'STEP AP203' ),
    '1' );
FILE_NAME ('34430_37020.step',
    '2017-09-06T15:51:28',
    ( '' ),
    ( '' ),
    'SwSTEP 2.0',
    'SolidWorks 2016',
    '' );
FILE_SCHEMA (( 'CONFIG_CONTROL_DESIGN' ));
ENDSEC;

DATA;
#1 =( NAMED_UNIT ( * ) SI_UNIT ( $, .STERADIAN. ) SOLID_ANGLE_UNIT ( ) );
#2 = DATE_AND_TIME ( #111, #107 ) ;
#3 = DESIGN_CONTEXT ( 'detailed design', #98, 'design' ) ;
#4 = LINE ( 'NONE', #112, #105 ) ;
#5 = DIRECTION ( 'NONE',  ( 1.000000000000000000, 0.0000000000000000000, -0.0000000000000000000 ) ) ;
#6 = LOCAL_TIME ( 11, 51, 28.00000000000000000, #60 ) ;
#7 = AXIS2_PLACEMENT_3D ( 'NONE', #37, #48, #148 ) ;
#8 = FACE_OUTER_BOUND ( 'NONE', #117, .T. ) ;
#9 = PERSON_AND_ORGANIZATION ( #73, #92 ) ;
#10 = APPROVAL_ROLE ( '' ) ;
#11 = DIRECTION ( 'NONE',  ( -1.000000000000000000, 0.0000000000000000000, 0.0000000000000000000 ) ) ;
#12 = APPLICATION_PROTOCOL_DEFINITION ( 'international standard', 'config_control_design', 1994, #98 ) ;
#13 = ORIENTED_EDGE ( 'NONE', *, *, #84, .T. ) ;
#14 = PRODUCT_DEFINITION ( 'UNKNOWN', '', #77, #3 ) ;
#15 = DIRECTION ( 'NONE',  ( -0.0000000000000000000, -0.0000000000000000000, -1.000000000000000000 ) ) ;
#16 = SHAPE_DEFINITION_REPRESENTATION ( #134, #85 ) ;
#17 = APPROVAL ( #129, 'UNSPECIFIED' ) ;
#18 = CIRCLE ( 'NONE', #149, 25.00000000000000000 ) ;
#19 = LINE ( 'NONE', #116, #158 ) ;
#20 = PERSON_AND_ORGANIZATION ( #73, #92 ) ;
#21 = CC_DESIGN_DATE_AND_TIME_ASSIGNMENT ( #2, #49, ( #14 ) ) ;
#22 = ORIENTED_EDGE ( 'NONE', *, *, #64, .F. ) ;
#23 = CC_DESIGN_PERSON_AND_ORGANIZATION_ASSIGNMENT ( #33, #25, ( #14 ) ) ;
#24 =( LENGTH_UNIT ( ) NAMED_UNIT ( * ) SI_UNIT ( .MILLI., .METRE. ) );
#25 = PERSON_AND_ORGANIZATION_ROLE ( 'creator' ) ;
#26 = APPROVAL_ROLE ( '' ) ;
#27 = PERSON_AND_ORGANIZATION_ROLE ( 'design_owner' ) ;
#28 = CARTESIAN_POINT ( 'NONE',  ( 25.00000000000000000, 3.061616997868383000E-015, 6.000000000000000000 ) ) ;
#29 = CARTESIAN_POINT ( 'NONE',  ( -25.00000000000000000, 0.0000000000000000000, 6.000000000000000000 ) ) ;
#30 = FACE_OUTER_BOUND ( 'NONE', #35, .T. ) ;
#31 = CALENDAR_DATE ( 2017, 6, 9 ) ;
#32 = CYLINDRICAL_SURFACE ( 'NONE', #173, 25.00000000000000000 ) ;
#33 = PERSON_AND_ORGANIZATION ( #73, #92 ) ;
#34 = DATE_AND_TIME ( #76, #169 ) ;
#35 = EDGE_LOOP ( 'NONE', ( #147, #90 ) ) ;
#36 = APPROVAL_DATE_TIME ( #120, #59 ) ;
#37 = CARTESIAN_POINT ( 'NONE',  ( 0.0000000000000000000, 0.0000000000000000000, 0.0000000000000000000 ) ) ;
#38 = CARTESIAN_POINT ( 'NONE',  ( 0.0000000000000000000, 0.0000000000000000000, 6.000000000000000000 ) ) ;
#39 = EDGE_CURVE ( 'NONE', #146, #54, #95, .T. ) ;
#40 = DIRECTION ( 'NONE',  ( -0.0000000000000000000, -0.0000000000000000000, -1.000000000000000000 ) ) ;
#41 = VERTEX_POINT ( 'NONE', #102 ) ;
#42 = UNCERTAINTY_MEASURE_WITH_UNIT (LENGTH_MEASURE( 1.000000000000000100E-005 ), #24, 'distance_accuracy_value', 'NONE');
#43 = CIRCLE ( 'NONE', #108, 25.00000000000000000 ) ;
#44 = ORIENTED_EDGE ( 'NONE', *, *, #64, .T. ) ;
#45 = LOCAL_TIME ( 11, 51, 28.00000000000000000, #133 ) ;
#46 = AXIS2_PLACEMENT_3D ( 'NONE', #38, #15, #11 ) ;
#47 = CLOSED_SHELL ( 'NONE', ( #172, #67, #143, #70 ) ) ;
#48 = DIRECTION ( 'NONE',  ( 0.0000000000000000000, 0.0000000000000000000, 1.000000000000000000 ) ) ;
#49 = DATE_TIME_ROLE ( 'creation_date' ) ;
#50 = ORIENTED_EDGE ( 'NONE', *, *, #159, .T. ) ;
#51 = PERSON_AND_ORGANIZATION_ROLE ( 'classification_officer' ) ;
#52 = CARTESIAN_POINT ( 'NONE',  ( 0.0000000000000000000, 0.0000000000000000000, 0.0000000000000000000 ) ) ;
#53 = CARTESIAN_POINT ( 'NONE',  ( 0.0000000000000000000, 0.0000000000000000000, 6.000000000000000000 ) ) ;
#54 = VERTEX_POINT ( 'NONE', #29 ) ;
#55 = PERSON_AND_ORGANIZATION ( #73, #92 ) ;
#56 = CC_DESIGN_PERSON_AND_ORGANIZATION_ASSIGNMENT ( #97, #27, ( #174 ) ) ;
#57 = DATE_AND_TIME ( #109, #103 ) ;
#58 = PLANE ( 'NONE',  #141 ) ;
#59 = APPROVAL ( #114, 'UNSPECIFIED' ) ;
#60 = COORDINATED_UNIVERSAL_TIME_OFFSET ( 5, 0, .BEHIND. ) ;
#61 = MECHANICAL_CONTEXT ( 'NONE', #82, 'mechanical' ) ;
#62 = EDGE_CURVE ( 'NONE', #162, #41, #43, .T. ) ;
#63 = CIRCLE ( 'NONE', #96, 25.00000000000000000 ) ;
#64 = EDGE_CURVE ( 'NONE', #54, #146, #63, .T. ) ;
#65 = CC_DESIGN_PERSON_AND_ORGANIZATION_ASSIGNMENT ( #69, #51, ( #150 ) ) ;
#66 = PERSON_AND_ORGANIZATION ( #73, #92 ) ;
#67 = ADVANCED_FACE ( 'NONE', ( #127 ), #32, .T. ) ;
#68 = ORIENTED_EDGE ( 'NONE', *, *, #39, .F. ) ;
#69 = PERSON_AND_ORGANIZATION ( #73, #92 ) ;
#70 = ADVANCED_FACE ( 'NONE', ( #30 ), #163, .F. ) ;
#71 = COORDINATED_UNIVERSAL_TIME_OFFSET ( 5, 0, .BEHIND. ) ;
#72 = CC_DESIGN_APPROVAL ( #59, ( #14 ) ) ;
#73 = PERSON ( 'UNSPECIFIED', 'UNSPECIFIED', 'UNSPECIFIED', ('UNSPECIFIED'), ('UNSPECIFIED'), ('UNSPECIFIED') ) ;
#74 = CC_DESIGN_SECURITY_CLASSIFICATION ( #150, ( #77 ) ) ;
#75 = MANIFOLD_SOLID_BREP ( 'Boss-Extrude1', #47 ) ;
#76 = CALENDAR_DATE ( 2017, 6, 9 ) ;
#77 = PRODUCT_DEFINITION_FORMATION_WITH_SPECIFIED_SOURCE ( 'ANY', '', #174, .NOT_KNOWN. ) ;
#78 = AXIS2_PLACEMENT_3D ( 'NONE', #53, #152, #87 ) ;
#79 = CC_DESIGN_APPROVAL ( #17, ( #150 ) ) ;
#80 = CYLINDRICAL_SURFACE ( 'NONE', #46, 25.00000000000000000 ) ;
#81 = COORDINATED_UNIVERSAL_TIME_OFFSET ( 5, 0, .BEHIND. ) ;
#82 = APPLICATION_CONTEXT ( 'configuration controlled 3d designs of mechanical parts and assemblies' ) ;
#83 = DATE_TIME_ROLE ( 'classification_date' ) ;
#84 = EDGE_CURVE ( 'NONE', #54, #162, #19, .T. ) ;
#85 = ADVANCED_BREP_SHAPE_REPRESENTATION ( '34430_37020', ( #75, #7 ), #145 ) ;
#86 = DIRECTION ( 'NONE',  ( 1.000000000000000000, 0.0000000000000000000, 0.0000000000000000000 ) ) ;
#87 = DIRECTION ( 'NONE',  ( 1.000000000000000000, 0.0000000000000000000, 0.0000000000000000000 ) ) ;
#88 = DIRECTION ( 'NONE',  ( 0.0000000000000000000, 0.0000000000000000000, 1.000000000000000000 ) ) ;
#89 = DIRECTION ( 'NONE',  ( 1.000000000000000000, 0.0000000000000000000, 0.0000000000000000000 ) ) ;
#90 = ORIENTED_EDGE ( 'NONE', *, *, #159, .F. ) ;
#91 = APPROVAL ( #128, 'UNSPECIFIED' ) ;
#92 = ORGANIZATION ( 'UNSPECIFIED', 'UNSPECIFIED', '' ) ;
#93 = EDGE_LOOP ( 'NONE', ( #44, #99 ) ) ;
#94 = CC_DESIGN_PERSON_AND_ORGANIZATION_ASSIGNMENT ( #55, #139, ( #77 ) ) ;
#95 = CIRCLE ( 'NONE', #78, 25.00000000000000000 ) ;
#96 = AXIS2_PLACEMENT_3D ( 'NONE', #154, #167, #89 ) ;
#97 = PERSON_AND_ORGANIZATION ( #73, #92 ) ;
#98 = APPLICATION_CONTEXT ( 'configuration controlled 3d designs of mechanical parts and assemblies' ) ;
#99 = ORIENTED_EDGE ( 'NONE', *, *, #39, .T. ) ;
#100 = DIRECTION ( 'NONE',  ( 0.0000000000000000000, 0.0000000000000000000, 1.000000000000000000 ) ) ;
#101 = CC_DESIGN_APPROVAL ( #91, ( #77 ) ) ;
#102 = CARTESIAN_POINT ( 'NONE',  ( 25.00000000000000000, 3.061616997868383000E-015, 0.0000000000000000000 ) ) ;
#103 = LOCAL_TIME ( 11, 51, 28.00000000000000000, #135 ) ;
#104 = CALENDAR_DATE ( 2017, 6, 9 ) ;
#105 = VECTOR ( 'NONE', #125, 1000.000000000000000 ) ;
#106 = APPROVAL_DATE_TIME ( #57, #17 ) ;
#107 = LOCAL_TIME ( 11, 51, 28.00000000000000000, #71 ) ;
#108 = AXIS2_PLACEMENT_3D ( 'NONE', #52, #153, #131 ) ;
#109 = CALENDAR_DATE ( 2017, 6, 9 ) ;
#110 = CC_DESIGN_PERSON_AND_ORGANIZATION_ASSIGNMENT ( #20, #126, ( #77 ) ) ;
#111 = CALENDAR_DATE ( 2017, 6, 9 ) ;
#112 = CARTESIAN_POINT ( 'NONE',  ( 25.00000000000000000, 3.061616997868383000E-015, 6.000000000000000000 ) ) ;
#113 = DIRECTION ( 'NONE',  ( 0.0000000000000000000, 0.0000000000000000000, 1.000000000000000000 ) ) ;
#114 = APPROVAL_STATUS ( 'not_yet_approved' ) ;
#115 = CC_DESIGN_DATE_AND_TIME_ASSIGNMENT ( #34, #83, ( #150 ) ) ;
#116 = CARTESIAN_POINT ( 'NONE',  ( -25.00000000000000000, 0.0000000000000000000, 6.000000000000000000 ) ) ;
#117 = EDGE_LOOP ( 'NONE', ( #68, #168, #50, #132 ) ) ;
#118 = CARTESIAN_POINT ( 'NONE',  ( -25.00000000000000000, 0.0000000000000000000, 0.0000000000000000000 ) ) ;
#119 = DIRECTION ( 'NONE',  ( -1.000000000000000000, 0.0000000000000000000, 0.0000000000000000000 ) ) ;
#120 = DATE_AND_TIME ( #104, #45 ) ;
#121 = PERSON_AND_ORGANIZATION ( #73, #92 ) ;
#122 = AXIS2_PLACEMENT_3D ( 'NONE', #166, #100, #5 ) ;
#123 = APPROVAL_PERSON_ORGANIZATION ( #9, #59, #26 ) ;
#124 = EDGE_LOOP ( 'NONE', ( #136, #22, #13, #170 ) ) ;
#125 = DIRECTION ( 'NONE',  ( -0.0000000000000000000, -0.0000000000000000000, -1.000000000000000000 ) ) ;
#126 = PERSON_AND_ORGANIZATION_ROLE ( 'creator' ) ;
#127 = FACE_OUTER_BOUND ( 'NONE', #124, .T. ) ;
#128 = APPROVAL_STATUS ( 'not_yet_approved' ) ;
#129 = APPROVAL_STATUS ( 'not_yet_approved' ) ;
#130 = DIRECTION ( 'NONE',  ( -0.0000000000000000000, -0.0000000000000000000, -1.000000000000000000 ) ) ;
#131 = DIRECTION ( 'NONE',  ( 1.000000000000000000, 0.0000000000000000000, 0.0000000000000000000 ) ) ;
#132 = ORIENTED_EDGE ( 'NONE', *, *, #84, .F. ) ;
#133 = COORDINATED_UNIVERSAL_TIME_OFFSET ( 5, 0, .BEHIND. ) ;
#134 = PRODUCT_DEFINITION_SHAPE ( 'NONE', 'NONE',  #14 ) ;
#135 = COORDINATED_UNIVERSAL_TIME_OFFSET ( 5, 0, .BEHIND. ) ;
#136 = ORIENTED_EDGE ( 'NONE', *, *, #155, .F. ) ;
#137 = CARTESIAN_POINT ( 'NONE',  ( 0.0000000000000000000, 0.0000000000000000000, 0.0000000000000000000 ) ) ;
#138 = APPROVAL_PERSON_ORGANIZATION ( #66, #91, #10 ) ;
#139 = PERSON_AND_ORGANIZATION_ROLE ( 'design_supplier' ) ;
#140 = SECURITY_CLASSIFICATION_LEVEL ( 'unclassified' ) ;
#141 = AXIS2_PLACEMENT_3D ( 'NONE', #151, #88, #164 ) ;
#142 = APPLICATION_PROTOCOL_DEFINITION ( 'international standard', 'config_control_design', 1994, #82 ) ;
#143 = ADVANCED_FACE ( 'NONE', ( #157 ), #58, .T. ) ;
#144 = PRODUCT_RELATED_PRODUCT_CATEGORY ( 'detail', '', ( #174 ) ) ;
#145 =( GEOMETRIC_REPRESENTATION_CONTEXT ( 3 ) GLOBAL_UNCERTAINTY_ASSIGNED_CONTEXT ( ( #42 ) ) GLOBAL_UNIT_ASSIGNED_CONTEXT ( ( #24, #160, #1 ) ) REPRESENTATION_CONTEXT ( 'NONE', 'WORKASPACE' ) );
#146 = VERTEX_POINT ( 'NONE', #28 ) ;
#147 = ORIENTED_EDGE ( 'NONE', *, *, #62, .F. ) ;
#148 = DIRECTION ( 'NONE',  ( 1.000000000000000000, 0.0000000000000000000, 0.0000000000000000000 ) ) ;
#149 = AXIS2_PLACEMENT_3D ( 'NONE', #137, #113, #86 ) ;
#150 = SECURITY_CLASSIFICATION ( '', '', #140 ) ;
#151 = CARTESIAN_POINT ( 'NONE',  ( 0.0000000000000000000, 0.0000000000000000000, 6.000000000000000000 ) ) ;
#152 = DIRECTION ( 'NONE',  ( 0.0000000000000000000, 0.0000000000000000000, 1.000000000000000000 ) ) ;
#153 = DIRECTION ( 'NONE',  ( 0.0000000000000000000, 0.0000000000000000000, 1.000000000000000000 ) ) ;
#154 = CARTESIAN_POINT ( 'NONE',  ( 0.0000000000000000000, 0.0000000000000000000, 6.000000000000000000 ) ) ;
#155 = EDGE_CURVE ( 'NONE', #146, #41, #4, .T. ) ;
#156 = APPROVAL_PERSON_ORGANIZATION ( #121, #17, #161 ) ;
#157 = FACE_OUTER_BOUND ( 'NONE', #93, .T. ) ;
#158 = VECTOR ( 'NONE', #130, 1000.000000000000000 ) ;
#159 = EDGE_CURVE ( 'NONE', #41, #162, #18, .T. ) ;
#160 =( NAMED_UNIT ( * ) PLANE_ANGLE_UNIT ( ) SI_UNIT ( $, .RADIAN. ) );
#161 = APPROVAL_ROLE ( '' ) ;
#162 = VERTEX_POINT ( 'NONE', #118 ) ;
#163 = PLANE ( 'NONE',  #122 ) ;
#164 = DIRECTION ( 'NONE',  ( 1.000000000000000000, 0.0000000000000000000, -0.0000000000000000000 ) ) ;
#165 = CARTESIAN_POINT ( 'NONE',  ( 0.0000000000000000000, 0.0000000000000000000, 6.000000000000000000 ) ) ;
#166 = CARTESIAN_POINT ( 'NONE',  ( 0.0000000000000000000, 0.0000000000000000000, 0.0000000000000000000 ) ) ;
#167 = DIRECTION ( 'NONE',  ( 0.0000000000000000000, 0.0000000000000000000, 1.000000000000000000 ) ) ;
#168 = ORIENTED_EDGE ( 'NONE', *, *, #155, .T. ) ;
#169 = LOCAL_TIME ( 11, 51, 28.00000000000000000, #81 ) ;
#170 = ORIENTED_EDGE ( 'NONE', *, *, #62, .T. ) ;
#171 = APPROVAL_DATE_TIME ( #175, #91 ) ;
#172 = ADVANCED_FACE ( 'NONE', ( #8 ), #80, .T. ) ;
#173 = AXIS2_PLACEMENT_3D ( 'NONE', #165, #40, #119 ) ;
#174 = PRODUCT ( '34430_37020', '34430_37020', '', ( #61 ) ) ;
#175 = DATE_AND_TIME ( #31, #6 ) ;
ENDSEC;
END-ISO-10303-21;
