ISO-10303-21;
HEADER;
FILE_DESCRIPTION (( 'STEP AP214' ),
    '1' );
FILE_NAME ('CTN011965.STEP',
    '2018-01-11T01:21:16',
    ( '' ),
    ( '' ),
    'SwSTEP 2.0',
    'SolidWorks 2016',
    '' );
FILE_SCHEMA (( 'AUTOMOTIVE_DESIGN' ));
ENDSEC;

DATA;
#1 = DIRECTION ( 'NONE',  ( 0.0000000000000000000, 0.0000000000000000000, -1.000000000000000000 ) ) ;
#2 = EDGE_CURVE ( 'NONE', #163, #99, #146, .T. ) ;
#3 = AXIS2_PLACEMENT_3D ( 'NONE', #142, #254, #165 ) ;
#4 = PLANE ( 'NONE',  #122 ) ;
#5 = AXIS2_PLACEMENT_3D ( 'NONE', #70, #49, #110 ) ;
#6 = FILL_AREA_STYLE ('',( #107 ) ) ;
#7 = ORIENTED_EDGE ( 'NONE', *, *, #80, .T. ) ;
#8 = FILL_AREA_STYLE_COLOUR ( '', #151 ) ;
#9 = DIRECTION ( 'NONE',  ( 0.0000000000000000000, 0.0000000000000000000, 1.000000000000000000 ) ) ;
#10 = LINE ( 'NONE', #34, #114 ) ;
#11 = FACE_BOUND ( 'NONE', #40, .T. ) ;
#12 =( NAMED_UNIT ( * ) PLANE_ANGLE_UNIT ( ) SI_UNIT ( $, .RADIAN. ) );
#13 = AXIS2_PLACEMENT_3D ( 'NONE', #186, #71, #199 ) ;
#14 = VECTOR ( 'NONE', #273, 1000.000000000000000 ) ;
#15 = MECHANICAL_DESIGN_GEOMETRIC_PRESENTATION_REPRESENTATION (  '', ( #61 ), #143 ) ;
#16 = ORIENTED_EDGE ( 'NONE', *, *, #65, .T. ) ;
#17 = SURFACE_STYLE_FILL_AREA ( #6 ) ;
#18 = UNCERTAINTY_MEASURE_WITH_UNIT (LENGTH_MEASURE( 1.000000000000000100E-005 ), #147, 'distance_accuracy_value', 'NONE');
#19 = EDGE_CURVE ( 'NONE', #103, #69, #58, .T. ) ;
#20 = VECTOR ( 'NONE', #225, 1000.000000000000000 ) ;
#21 = ORIENTED_EDGE ( 'NONE', *, *, #65, .F. ) ;
#22 = SURFACE_STYLE_FILL_AREA ( #180 ) ;
#23 =( LENGTH_UNIT ( ) NAMED_UNIT ( * ) SI_UNIT ( .MILLI., .METRE. ) );
#24 =( NAMED_UNIT ( * ) PLANE_ANGLE_UNIT ( ) SI_UNIT ( $, .RADIAN. ) );
#25 = FILL_AREA_STYLE_COLOUR ( '', #231 ) ;
#26 = SURFACE_STYLE_FILL_AREA ( #271 ) ;
#27 = CARTESIAN_POINT ( 'NONE',  ( 4.286263797015736600E-016, 10.00000000000000000, 3.500000000000000000 ) ) ;
#28 = DIRECTION ( 'NONE',  ( 0.0000000000000000000, -0.0000000000000000000, 1.000000000000000000 ) ) ;
#29 = AXIS2_PLACEMENT_3D ( 'NONE', #78, #205, #90 ) ;
#30 = PRESENTATION_LAYER_ASSIGNMENT (  '', '', ( #253 ) ) ;
#31 = DIRECTION ( 'NONE',  ( 0.0000000000000000000, 1.000000000000000000, 0.0000000000000000000 ) ) ;
#32 = PRODUCT_CONTEXT ( 'NONE', #74, 'mechanical' ) ;
#33 =( NAMED_UNIT ( * ) PLANE_ANGLE_UNIT ( ) SI_UNIT ( $, .RADIAN. ) );
#34 = CARTESIAN_POINT ( 'NONE',  ( 4.898587196589417800E-016, 10.00000000000000000, 4.000000000000003600 ) ) ;
#35 = EDGE_CURVE ( 'NONE', #121, #135, #82, .T. ) ;
#36 = SURFACE_STYLE_USAGE ( .BOTH. , #174 ) ;
#37 = ORIENTED_EDGE ( 'NONE', *, *, #2, .T. ) ;
#38 = AXIS2_PLACEMENT_3D ( 'NONE', #228, #138, #104 ) ;
#39 = PRESENTATION_STYLE_ASSIGNMENT (( #156 ) ) ;
#40 = EDGE_LOOP ( 'NONE', ( #127, #21 ) ) ;
#41 = UNCERTAINTY_MEASURE_WITH_UNIT (LENGTH_MEASURE( 1.000000000000000100E-005 ), #145, 'distance_accuracy_value', 'NONE');
#42 =( GEOMETRIC_REPRESENTATION_CONTEXT ( 3 ) GLOBAL_UNCERTAINTY_ASSIGNED_CONTEXT ( ( #18 ) ) GLOBAL_UNIT_ASSIGNED_CONTEXT ( ( #147, #12, #131 ) ) REPRESENTATION_CONTEXT ( 'NONE', 'WORKASPACE' ) );
#43 = STYLED_ITEM ( 'NONE', ( #204 ), #159 ) ;
#44 = SURFACE_SIDE_STYLE ('',( #22 ) ) ;
#45 = ORIENTED_EDGE ( 'NONE', *, *, #19, .T. ) ;
#46 = CARTESIAN_POINT ( 'NONE',  ( 0.0000000000000000000, 10.00000000000000000, -3.500000000000000000 ) ) ;
#47 = CARTESIAN_POINT ( 'NONE',  ( 4.286263797015736600E-016, 0.0000000000000000000, 3.500000000000000000 ) ) ;
#48 = UNCERTAINTY_MEASURE_WITH_UNIT (LENGTH_MEASURE( 1.000000000000000100E-005 ), #209, 'distance_accuracy_value', 'NONE');
#49 = DIRECTION ( 'NONE',  ( 0.0000000000000000000, 1.000000000000000000, 0.0000000000000000000 ) ) ;
#50 =( NAMED_UNIT ( * ) SI_UNIT ( $, .STERADIAN. ) SOLID_ANGLE_UNIT ( ) );
#51 = MECHANICAL_DESIGN_GEOMETRIC_PRESENTATION_REPRESENTATION (  '', ( #207 ), #240 ) ;
#52 =( NAMED_UNIT ( * ) SI_UNIT ( $, .STERADIAN. ) SOLID_ANGLE_UNIT ( ) );
#53 =( NAMED_UNIT ( * ) PLANE_ANGLE_UNIT ( ) SI_UNIT ( $, .RADIAN. ) );
#54 = ORIENTED_EDGE ( 'NONE', *, *, #160, .F. ) ;
#55 = CARTESIAN_POINT ( 'NONE',  ( 0.0000000000000000000, 10.00000000000000000, -4.000000000000003600 ) ) ;
#56 = APPLICATION_PROTOCOL_DEFINITION ( 'draft international standard', 'automotive_design', 1998, #168 ) ;
#57 = VECTOR ( 'NONE', #185, 1000.000000000000000 ) ;
#58 = CIRCLE ( 'NONE', #13, 4.000000000000003600 ) ;
#59 = ORIENTED_EDGE ( 'NONE', *, *, #258, .F. ) ;
#60 = PRESENTATION_STYLE_ASSIGNMENT (( #162 ) ) ;
#61 = STYLED_ITEM ( 'NONE', ( #116 ), #83 ) ;
#62 =( GEOMETRIC_REPRESENTATION_CONTEXT ( 3 ) GLOBAL_UNCERTAINTY_ASSIGNED_CONTEXT ( ( #48 ) ) GLOBAL_UNIT_ASSIGNED_CONTEXT ( ( #209, #53, #184 ) ) REPRESENTATION_CONTEXT ( 'NONE', 'WORKASPACE' ) );
#63 = FACE_OUTER_BOUND ( 'NONE', #98, .T. ) ;
#64 = ORIENTED_EDGE ( 'NONE', *, *, #258, .T. ) ;
#65 = EDGE_CURVE ( 'NONE', #121, #163, #181, .T. ) ;
#66 = EDGE_LOOP ( 'NONE', ( #7, #264, #195, #197 ) ) ;
#67 = CARTESIAN_POINT ( 'NONE',  ( 0.0000000000000000000, 10.00000000000000000, 0.0000000000000000000 ) ) ;
#68 = APPLICATION_PROTOCOL_DEFINITION ( 'draft international standard', 'automotive_design', 1998, #74 ) ;
#69 = VERTEX_POINT ( 'NONE', #125 ) ;
#70 = CARTESIAN_POINT ( 'NONE',  ( 0.0000000000000000000, 10.00000000000000000, 0.0000000000000000000 ) ) ;
#71 = DIRECTION ( 'NONE',  ( 0.0000000000000000000, 1.000000000000000000, 0.0000000000000000000 ) ) ;
#72 = SURFACE_STYLE_USAGE ( .BOTH. , #232 ) ;
#73 = PRESENTATION_LAYER_ASSIGNMENT (  '', '', ( #61 ) ) ;
#74 = APPLICATION_CONTEXT ( 'automotive_design' ) ;
#75 = CYLINDRICAL_SURFACE ( 'NONE', #133, 4.000000000000003600 ) ;
#76 = CIRCLE ( 'NONE', #260, 4.000000000000003600 ) ;
#77 = MECHANICAL_DESIGN_GEOMETRIC_PRESENTATION_REPRESENTATION (  '', ( #43 ), #198 ) ;
#78 = CARTESIAN_POINT ( 'NONE',  ( 0.0000000000000000000, 0.0000000000000000000, 0.0000000000000000000 ) ) ;
#79 =( NAMED_UNIT ( * ) PLANE_ANGLE_UNIT ( ) SI_UNIT ( $, .RADIAN. ) );
#80 = EDGE_CURVE ( 'NONE', #163, #121, #175, .T. ) ;
#81 = CARTESIAN_POINT ( 'NONE',  ( 4.286263797015736600E-016, 10.00000000000000000, 3.500000000000000000 ) ) ;
#82 = LINE ( 'NONE', #27, #20 ) ;
#83 = ADVANCED_FACE ( 'NONE', ( #118 ), #75, .T. ) ;
#84 = ORIENTED_EDGE ( 'NONE', *, *, #213, .F. ) ;
#85 = AXIS2_PLACEMENT_3D ( 'NONE', #226, #87, #200 ) ;
#86 = SURFACE_STYLE_USAGE ( .BOTH. , #161 ) ;
#87 = DIRECTION ( 'NONE',  ( 0.0000000000000000000, 1.000000000000000000, 0.0000000000000000000 ) ) ;
#88 = SURFACE_SIDE_STYLE ('',( #183 ) ) ;
#89 = ORIENTED_EDGE ( 'NONE', *, *, #213, .T. ) ;
#90 = DIRECTION ( 'NONE',  ( 0.0000000000000000000, 0.0000000000000000000, 1.000000000000000000 ) ) ;
#91 = STYLED_ITEM ( 'NONE', ( #120 ), #134 ) ;
#92 =( NAMED_UNIT ( * ) PLANE_ANGLE_UNIT ( ) SI_UNIT ( $, .RADIAN. ) );
#93 = FILL_AREA_STYLE ('',( #166 ) ) ;
#94 = COLOUR_RGB ( '',0.7960784313725489700, 0.8235294117647058400, 0.9372549019607843100 ) ;
#95 = SURFACE_STYLE_USAGE ( .BOTH. , #88 ) ;
#96 = PLANE ( 'NONE',  #272 ) ;
#97 = UNCERTAINTY_MEASURE_WITH_UNIT (LENGTH_MEASURE( 1.000000000000000100E-005 ), #23, 'distance_accuracy_value', 'NONE');
#98 = EDGE_LOOP ( 'NONE', ( #217, #177 ) ) ;
#99 = VERTEX_POINT ( 'NONE', #128 ) ;
#100 = MECHANICAL_DESIGN_GEOMETRIC_PRESENTATION_REPRESENTATION (  '', ( #91 ), #42 ) ;
#101 = ADVANCED_FACE ( 'NONE', ( #224, #11 ), #4, .T. ) ;
#102 = EDGE_LOOP ( 'NONE', ( #208, #89, #169, #59 ) ) ;
#103 = VERTEX_POINT ( 'NONE', #137 ) ;
#104 = DIRECTION ( 'NONE',  ( 0.0000000000000000000, 0.0000000000000000000, 1.000000000000000000 ) ) ;
#105 = FILL_AREA_STYLE_COLOUR ( '', #94 ) ;
#106 = SURFACE_STYLE_FILL_AREA ( #93 ) ;
#107 = FILL_AREA_STYLE_COLOUR ( '', #235 ) ;
#108 = DIRECTION ( 'NONE',  ( 0.0000000000000000000, 0.0000000000000000000, -1.000000000000000000 ) ) ;
#109 = VERTEX_POINT ( 'NONE', #216 ) ;
#110 = DIRECTION ( 'NONE',  ( 0.0000000000000000000, 0.0000000000000000000, 1.000000000000000000 ) ) ;
#111 = CARTESIAN_POINT ( 'NONE',  ( 0.0000000000000000000, 0.0000000000000000000, 0.0000000000000000000 ) ) ;
#112 = PRESENTATION_LAYER_ASSIGNMENT (  '', '', ( #91 ) ) ;
#113 = DIRECTION ( 'NONE',  ( 0.0000000000000000000, 1.000000000000000000, 0.0000000000000000000 ) ) ;
#114 = VECTOR ( 'NONE', #187, 1000.000000000000000 ) ;
#115 = AXIS2_PLACEMENT_3D ( 'NONE', #203, #139, #141 ) ;
#116 = PRESENTATION_STYLE_ASSIGNMENT (( #86 ) ) ;
#117 = CARTESIAN_POINT ( 'NONE',  ( 0.0000000000000000000, 10.00000000000000000, -3.500000000000000000 ) ) ;
#118 = FACE_OUTER_BOUND ( 'NONE', #247, .T. ) ;
#119 = CIRCLE ( 'NONE', #220, 3.500000000000000000 ) ;
#120 = PRESENTATION_STYLE_ASSIGNMENT (( #36 ) ) ;
#121 = VERTEX_POINT ( 'NONE', #81 ) ;
#122 = AXIS2_PLACEMENT_3D ( 'NONE', #126, #229, #28 ) ;
#123 = DIRECTION ( 'NONE',  ( -0.0000000000000000000, -1.000000000000000000, -0.0000000000000000000 ) ) ;
#124 = FACE_OUTER_BOUND ( 'NONE', #245, .T. ) ;
#125 = CARTESIAN_POINT ( 'NONE',  ( 0.0000000000000000000, 10.00000000000000000, -4.000000000000003600 ) ) ;
#126 = CARTESIAN_POINT ( 'NONE',  ( 0.0000000000000000000, 10.00000000000000000, 0.0000000000000000000 ) ) ;
#127 = ORIENTED_EDGE ( 'NONE', *, *, #80, .F. ) ;
#128 = CARTESIAN_POINT ( 'NONE',  ( 0.0000000000000000000, 0.0000000000000000000, -3.500000000000000000 ) ) ;
#129 = AXIS2_PLACEMENT_3D ( 'NONE', #230, #202, #173 ) ;
#130 = DIRECTION ( 'NONE',  ( 0.0000000000000000000, 1.000000000000000000, 0.0000000000000000000 ) ) ;
#131 =( NAMED_UNIT ( * ) SI_UNIT ( $, .STERADIAN. ) SOLID_ANGLE_UNIT ( ) );
#132 = ORIENTED_EDGE ( 'NONE', *, *, #160, .T. ) ;
#133 = AXIS2_PLACEMENT_3D ( 'NONE', #222, #123, #108 ) ;
#134 = MANIFOLD_SOLID_BREP ( 'Boss-Extrude1', #261 ) ;
#135 = VERTEX_POINT ( 'NONE', #47 ) ;
#136 = FILL_AREA_STYLE_COLOUR ( '', #150 ) ;
#137 = CARTESIAN_POINT ( 'NONE',  ( 4.898587196589417800E-016, 10.00000000000000000, 4.000000000000003600 ) ) ;
#138 = DIRECTION ( 'NONE',  ( 0.0000000000000000000, 1.000000000000000000, 0.0000000000000000000 ) ) ;
#139 = DIRECTION ( 'NONE',  ( 0.0000000000000000000, 0.0000000000000000000, 1.000000000000000000 ) ) ;
#140 = PRODUCT_DEFINITION_SHAPE ( 'NONE', 'NONE',  #242 ) ;
#141 = DIRECTION ( 'NONE',  ( 1.000000000000000000, 0.0000000000000000000, 0.0000000000000000000 ) ) ;
#142 = CARTESIAN_POINT ( 'NONE',  ( 0.0000000000000000000, 10.00000000000000000, 0.0000000000000000000 ) ) ;
#143 =( GEOMETRIC_REPRESENTATION_CONTEXT ( 3 ) GLOBAL_UNCERTAINTY_ASSIGNED_CONTEXT ( ( #236 ) ) GLOBAL_UNIT_ASSIGNED_CONTEXT ( ( #249, #179, #246 ) ) REPRESENTATION_CONTEXT ( 'NONE', 'WORKASPACE' ) );
#144 = CARTESIAN_POINT ( 'NONE',  ( 0.0000000000000000000, 0.0000000000000000000, 0.0000000000000000000 ) ) ;
#145 =( LENGTH_UNIT ( ) NAMED_UNIT ( * ) SI_UNIT ( .MILLI., .METRE. ) );
#146 = LINE ( 'NONE', #46, #14 ) ;
#147 =( LENGTH_UNIT ( ) NAMED_UNIT ( * ) SI_UNIT ( .MILLI., .METRE. ) );
#148 = PRESENTATION_LAYER_ASSIGNMENT (  '', '', ( #207 ) ) ;
#149 = VERTEX_POINT ( 'NONE', #257 ) ;
#150 = COLOUR_RGB ( '',0.7960784313725489700, 0.8235294117647058400, 0.9372549019607843100 ) ;
#151 = COLOUR_RGB ( '',0.7921568627450980000, 0.8196078431372548800, 0.9333333333333333500 ) ;
#152 = PRODUCT_DEFINITION_FORMATION_WITH_SPECIFIED_SOURCE ( 'ANY', '', #191, .NOT_KNOWN. ) ;
#153 = CIRCLE ( 'NONE', #221, 4.000000000000003600 ) ;
#154 = ORIENTED_EDGE ( 'NONE', *, *, #194, .T. ) ;
#155 = PRESENTATION_LAYER_ASSIGNMENT (  '', '', ( #43 ) ) ;
#156 = SURFACE_STYLE_USAGE ( .BOTH. , #44 ) ;
#157 = CYLINDRICAL_SURFACE ( 'NONE', #129, 3.500000000000000000 ) ;
#158 = DIRECTION ( 'NONE',  ( -0.0000000000000000000, -1.000000000000000000, -0.0000000000000000000 ) ) ;
#159 = ADVANCED_BREP_SHAPE_REPRESENTATION ( 'CTN011965', ( #134, #115 ), #252 ) ;
#160 = EDGE_CURVE ( 'NONE', #69, #103, #170, .T. ) ;
#161 = SURFACE_SIDE_STYLE ('',( #26 ) ) ;
#162 = SURFACE_STYLE_USAGE ( .BOTH. , #238 ) ;
#163 = VERTEX_POINT ( 'NONE', #117 ) ;
#164 =( GEOMETRIC_REPRESENTATION_CONTEXT ( 3 ) GLOBAL_UNCERTAINTY_ASSIGNED_CONTEXT ( ( #265 ) ) GLOBAL_UNIT_ASSIGNED_CONTEXT ( ( #248, #79, #188 ) ) REPRESENTATION_CONTEXT ( 'NONE', 'WORKASPACE' ) );
#165 = DIRECTION ( 'NONE',  ( 0.0000000000000000000, 0.0000000000000000000, -1.000000000000000000 ) ) ;
#166 = FILL_AREA_STYLE_COLOUR ( '', #263 ) ;
#167 = PRODUCT_RELATED_PRODUCT_CATEGORY ( 'part', '', ( #191 ) ) ;
#168 = APPLICATION_CONTEXT ( 'automotive_design' ) ;
#169 = ORIENTED_EDGE ( 'NONE', *, *, #244, .T. ) ;
#170 = CIRCLE ( 'NONE', #85, 4.000000000000003600 ) ;
#171 =( NAMED_UNIT ( * ) SI_UNIT ( $, .STERADIAN. ) SOLID_ANGLE_UNIT ( ) );
#172 = CYLINDRICAL_SURFACE ( 'NONE', #3, 4.000000000000003600 ) ;
#173 = DIRECTION ( 'NONE',  ( 0.0000000000000000000, 0.0000000000000000000, -1.000000000000000000 ) ) ;
#174 = SURFACE_SIDE_STYLE ('',( #17 ) ) ;
#175 = CIRCLE ( 'NONE', #38, 3.500000000000000000 ) ;
#176 = ADVANCED_FACE ( 'NONE', ( #124 ), #234, .F. ) ;
#177 = ORIENTED_EDGE ( 'NONE', *, *, #244, .F. ) ;
#178 = MECHANICAL_DESIGN_GEOMETRIC_PRESENTATION_REPRESENTATION (  '', ( #251 ), #164 ) ;
#179 =( NAMED_UNIT ( * ) PLANE_ANGLE_UNIT ( ) SI_UNIT ( $, .RADIAN. ) );
#180 = FILL_AREA_STYLE ('',( #105 ) ) ;
#181 = CIRCLE ( 'NONE', #5, 3.500000000000000000 ) ;
#182 = DIRECTION ( 'NONE',  ( 0.0000000000000000000, 0.0000000000000000000, 1.000000000000000000 ) ) ;
#183 = SURFACE_STYLE_FILL_AREA ( #211 ) ;
#184 =( NAMED_UNIT ( * ) SI_UNIT ( $, .STERADIAN. ) SOLID_ANGLE_UNIT ( ) );
#185 = DIRECTION ( 'NONE',  ( -0.0000000000000000000, -1.000000000000000000, -0.0000000000000000000 ) ) ;
#186 = CARTESIAN_POINT ( 'NONE',  ( 0.0000000000000000000, 10.00000000000000000, 0.0000000000000000000 ) ) ;
#187 = DIRECTION ( 'NONE',  ( -0.0000000000000000000, -1.000000000000000000, -0.0000000000000000000 ) ) ;
#188 =( NAMED_UNIT ( * ) SI_UNIT ( $, .STERADIAN. ) SOLID_ANGLE_UNIT ( ) );
#189 = EDGE_LOOP ( 'NONE', ( #154, #219 ) ) ;
#190 = FILL_AREA_STYLE ('',( #136 ) ) ;
#191 = PRODUCT ( 'CTN011965', 'CTN011965', '', ( #32 ) ) ;
#192 = AXIS2_PLACEMENT_3D ( 'NONE', #67, #158, #1 ) ;
#193 = ADVANCED_FACE ( 'NONE', ( #269 ), #157, .F. ) ;
#194 = EDGE_CURVE ( 'NONE', #99, #135, #218, .T. ) ;
#195 = ORIENTED_EDGE ( 'NONE', *, *, #194, .F. ) ;
#196 = SHAPE_DEFINITION_REPRESENTATION ( #140, #159 ) ;
#197 = ORIENTED_EDGE ( 'NONE', *, *, #2, .F. ) ;
#198 =( GEOMETRIC_REPRESENTATION_CONTEXT ( 3 ) GLOBAL_UNCERTAINTY_ASSIGNED_CONTEXT ( ( #41 ) ) GLOBAL_UNIT_ASSIGNED_CONTEXT ( ( #145, #33, #171 ) ) REPRESENTATION_CONTEXT ( 'NONE', 'WORKASPACE' ) );
#199 = DIRECTION ( 'NONE',  ( 0.0000000000000000000, 0.0000000000000000000, 1.000000000000000000 ) ) ;
#200 = DIRECTION ( 'NONE',  ( 0.0000000000000000000, 0.0000000000000000000, 1.000000000000000000 ) ) ;
#201 = PRESENTATION_STYLE_ASSIGNMENT (( #72 ) ) ;
#202 = DIRECTION ( 'NONE',  ( -0.0000000000000000000, -1.000000000000000000, -0.0000000000000000000 ) ) ;
#203 = CARTESIAN_POINT ( 'NONE',  ( 0.0000000000000000000, 0.0000000000000000000, 0.0000000000000000000 ) ) ;
#204 = PRESENTATION_STYLE_ASSIGNMENT (( #95 ) ) ;
#205 = DIRECTION ( 'NONE',  ( 0.0000000000000000000, 1.000000000000000000, 0.0000000000000000000 ) ) ;
#206 =( LENGTH_UNIT ( ) NAMED_UNIT ( * ) SI_UNIT ( .MILLI., .METRE. ) );
#207 = STYLED_ITEM ( 'NONE', ( #39 ), #176 ) ;
#208 = ORIENTED_EDGE ( 'NONE', *, *, #19, .F. ) ;
#209 =( LENGTH_UNIT ( ) NAMED_UNIT ( * ) SI_UNIT ( .MILLI., .METRE. ) );
#210 = DIRECTION ( 'NONE',  ( 0.0000000000000000000, -0.0000000000000000000, 1.000000000000000000 ) ) ;
#211 = FILL_AREA_STYLE ('',( #8 ) ) ;
#212 = FACE_BOUND ( 'NONE', #189, .T. ) ;
#213 = EDGE_CURVE ( 'NONE', #103, #109, #10, .T. ) ;
#214 = SURFACE_STYLE_FILL_AREA ( #190 ) ;
#215 = UNCERTAINTY_MEASURE_WITH_UNIT (LENGTH_MEASURE( 1.000000000000000100E-005 ), #206, 'distance_accuracy_value', 'NONE');
#216 = CARTESIAN_POINT ( 'NONE',  ( 4.898587196589417800E-016, 0.0000000000000000000, 4.000000000000003600 ) ) ;
#217 = ORIENTED_EDGE ( 'NONE', *, *, #266, .F. ) ;
#218 = CIRCLE ( 'NONE', #29, 3.500000000000000000 ) ;
#219 = ORIENTED_EDGE ( 'NONE', *, *, #227, .T. ) ;
#220 = AXIS2_PLACEMENT_3D ( 'NONE', #256, #130, #233 ) ;
#221 = AXIS2_PLACEMENT_3D ( 'NONE', #111, #31, #9 ) ;
#222 = CARTESIAN_POINT ( 'NONE',  ( 0.0000000000000000000, 10.00000000000000000, 0.0000000000000000000 ) ) ;
#223 = FACE_OUTER_BOUND ( 'NONE', #102, .T. ) ;
#224 = FACE_OUTER_BOUND ( 'NONE', #239, .T. ) ;
#225 = DIRECTION ( 'NONE',  ( -0.0000000000000000000, -1.000000000000000000, -0.0000000000000000000 ) ) ;
#226 = CARTESIAN_POINT ( 'NONE',  ( 0.0000000000000000000, 10.00000000000000000, 0.0000000000000000000 ) ) ;
#227 = EDGE_CURVE ( 'NONE', #135, #99, #119, .T. ) ;
#228 = CARTESIAN_POINT ( 'NONE',  ( 0.0000000000000000000, 10.00000000000000000, 0.0000000000000000000 ) ) ;
#229 = DIRECTION ( 'NONE',  ( 0.0000000000000000000, 1.000000000000000000, 0.0000000000000000000 ) ) ;
#230 = CARTESIAN_POINT ( 'NONE',  ( 0.0000000000000000000, 10.00000000000000000, 0.0000000000000000000 ) ) ;
#231 = COLOUR_RGB ( '',0.7529411764705882200, 0.7529411764705882200, 0.7529411764705882200 ) ;
#232 = SURFACE_SIDE_STYLE ('',( #106 ) ) ;
#233 = DIRECTION ( 'NONE',  ( 0.0000000000000000000, 0.0000000000000000000, 1.000000000000000000 ) ) ;
#234 = CYLINDRICAL_SURFACE ( 'NONE', #192, 3.500000000000000000 ) ;
#235 = COLOUR_RGB ( '',0.5019607843137254800, 0.5019607843137254800, 0.0000000000000000000 ) ;
#236 = UNCERTAINTY_MEASURE_WITH_UNIT (LENGTH_MEASURE( 1.000000000000000100E-005 ), #249, 'distance_accuracy_value', 'NONE');
#237 = DIRECTION ( 'NONE',  ( 0.0000000000000000000, 1.000000000000000000, 0.0000000000000000000 ) ) ;
#238 = SURFACE_SIDE_STYLE ('',( #214 ) ) ;
#239 = EDGE_LOOP ( 'NONE', ( #132, #45 ) ) ;
#240 =( GEOMETRIC_REPRESENTATION_CONTEXT ( 3 ) GLOBAL_UNCERTAINTY_ASSIGNED_CONTEXT ( ( #97 ) ) GLOBAL_UNIT_ASSIGNED_CONTEXT ( ( #23, #24, #50 ) ) REPRESENTATION_CONTEXT ( 'NONE', 'WORKASPACE' ) );
#241 = MECHANICAL_DESIGN_GEOMETRIC_PRESENTATION_REPRESENTATION (  '', ( #253 ), #62 ) ;
#242 = PRODUCT_DEFINITION ( 'UNKNOWN', '', #152, #267 ) ;
#243 = ADVANCED_FACE ( 'NONE', ( #63, #212 ), #96, .F. ) ;
#244 = EDGE_CURVE ( 'NONE', #109, #149, #153, .T. ) ;
#245 = EDGE_LOOP ( 'NONE', ( #259, #16, #37, #268 ) ) ;
#246 =( NAMED_UNIT ( * ) SI_UNIT ( $, .STERADIAN. ) SOLID_ANGLE_UNIT ( ) );
#247 = EDGE_LOOP ( 'NONE', ( #84, #54, #64, #255 ) ) ;
#248 =( LENGTH_UNIT ( ) NAMED_UNIT ( * ) SI_UNIT ( .MILLI., .METRE. ) );
#249 =( LENGTH_UNIT ( ) NAMED_UNIT ( * ) SI_UNIT ( .MILLI., .METRE. ) );
#250 = CARTESIAN_POINT ( 'NONE',  ( 0.0000000000000000000, 0.0000000000000000000, 0.0000000000000000000 ) ) ;
#251 = STYLED_ITEM ( 'NONE', ( #60 ), #193 ) ;
#252 =( GEOMETRIC_REPRESENTATION_CONTEXT ( 3 ) GLOBAL_UNCERTAINTY_ASSIGNED_CONTEXT ( ( #215 ) ) GLOBAL_UNIT_ASSIGNED_CONTEXT ( ( #206, #92, #52 ) ) REPRESENTATION_CONTEXT ( 'NONE', 'WORKASPACE' ) );
#253 = STYLED_ITEM ( 'NONE', ( #201 ), #262 ) ;
#254 = DIRECTION ( 'NONE',  ( -0.0000000000000000000, -1.000000000000000000, -0.0000000000000000000 ) ) ;
#255 = ORIENTED_EDGE ( 'NONE', *, *, #266, .T. ) ;
#256 = CARTESIAN_POINT ( 'NONE',  ( 0.0000000000000000000, 0.0000000000000000000, 0.0000000000000000000 ) ) ;
#257 = CARTESIAN_POINT ( 'NONE',  ( 0.0000000000000000000, 0.0000000000000000000, -4.000000000000003600 ) ) ;
#258 = EDGE_CURVE ( 'NONE', #69, #149, #274, .T. ) ;
#259 = ORIENTED_EDGE ( 'NONE', *, *, #35, .F. ) ;
#260 = AXIS2_PLACEMENT_3D ( 'NONE', #250, #237, #182 ) ;
#261 = CLOSED_SHELL ( 'NONE', ( #193, #262, #101, #243, #83, #176 ) ) ;
#262 = ADVANCED_FACE ( 'NONE', ( #223 ), #172, .T. ) ;
#263 = COLOUR_RGB ( '',0.7529411764705882200, 0.7529411764705882200, 0.7529411764705882200 ) ;
#264 = ORIENTED_EDGE ( 'NONE', *, *, #35, .T. ) ;
#265 = UNCERTAINTY_MEASURE_WITH_UNIT (LENGTH_MEASURE( 1.000000000000000100E-005 ), #248, 'distance_accuracy_value', 'NONE');
#266 = EDGE_CURVE ( 'NONE', #149, #109, #76, .T. ) ;
#267 = PRODUCT_DEFINITION_CONTEXT ( 'detailed design', #168, 'design' ) ;
#268 = ORIENTED_EDGE ( 'NONE', *, *, #227, .F. ) ;
#269 = FACE_OUTER_BOUND ( 'NONE', #66, .T. ) ;
#270 = PRESENTATION_LAYER_ASSIGNMENT (  '', '', ( #251 ) ) ;
#271 = FILL_AREA_STYLE ('',( #25 ) ) ;
#272 = AXIS2_PLACEMENT_3D ( 'NONE', #144, #113, #210 ) ;
#273 = DIRECTION ( 'NONE',  ( -0.0000000000000000000, -1.000000000000000000, -0.0000000000000000000 ) ) ;
#274 = LINE ( 'NONE', #55, #57 ) ;
ENDSEC;
END-ISO-10303-21;
