ISO-10303-21;
HEADER;
FILE_DESCRIPTION (( 'STEP AP203' ),
    '1' );
FILE_NAME ('Web Model 19822_19827.step',
    '2022-01-03T21:59:08',
    ( '' ),
    ( '' ),
    'SwSTEP 2.0',
    'SolidWorks 2018',
    '' );
FILE_SCHEMA (( 'CONFIG_CONTROL_DESIGN' ));
ENDSEC;

DATA;
#1 = CC_DESIGN_PERSON_AND_ORGANIZATION_ASSIGNMENT ( #35, #108, ( #99 ) ) ;
#2 = ORIENTED_EDGE ( 'NONE', *, *, #126, .T. ) ;
#3 = DIRECTION ( 'NONE',  ( 1.000000000000000000, 0.000000000000000000, 0.000000000000000000 ) ) ;
#4 = DIRECTION ( 'NONE',  ( 1.000000000000000000, 0.000000000000000000, 0.000000000000000000 ) ) ;
#5 = DATE_AND_TIME ( #107, #156 ) ;
#6 = MECHANICAL_CONTEXT ( 'NONE', #135, 'mechanical' ) ;
#7 = LINE ( 'NONE', #96, #105 ) ;
#8 = PERSON_AND_ORGANIZATION ( #88, #32 ) ;
#9 = ORIENTED_EDGE ( 'NONE', *, *, #115, .T. ) ;
#10 = ADVANCED_FACE ( 'NONE', ( #165 ), #158, .T. ) ;
#11 = CLOSED_SHELL ( 'NONE', ( #61, #168, #10, #60 ) ) ;
#12 = CC_DESIGN_SECURITY_CLASSIFICATION ( #117, ( #51 ) ) ;
#13 = SHAPE_DEFINITION_REPRESENTATION ( #87, #95 ) ;
#14 = DIRECTION ( 'NONE',  ( 1.000000000000000000, 0.000000000000000000, 0.000000000000000000 ) ) ;
#15 = AXIS2_PLACEMENT_3D ( 'NONE', #24, #144, #14 ) ;
#16 = DIRECTION ( 'NONE',  ( 0.000000000000000000, 0.000000000000000000, 1.000000000000000000 ) ) ;
#17 = APPLICATION_PROTOCOL_DEFINITION ( 'international standard', 'config_control_design', 1994, #135 ) ;
#18 = ORIENTED_EDGE ( 'NONE', *, *, #115, .F. ) ;
#19 = COORDINATED_UNIVERSAL_TIME_OFFSET ( 5, 0, .BEHIND. ) ;
#20 = VERTEX_POINT ( 'NONE', #128 ) ;
#21 = AXIS2_PLACEMENT_3D ( 'NONE', #79, #81, #82 ) ;
#22 = CARTESIAN_POINT ( 'NONE',  ( 0.000000000000000000, 0.000000000000000000, 0.000000000000000000 ) ) ;
#23 = COORDINATED_UNIVERSAL_TIME_OFFSET ( 5, 0, .BEHIND. ) ;
#24 = CARTESIAN_POINT ( 'NONE',  ( 0.000000000000000000, 0.000000000000000000, 0.000000000000000000 ) ) ;
#25 = CARTESIAN_POINT ( 'NONE',  ( 0.000000000000000000, 0.000000000000000000, 1.500000000000000000 ) ) ;
#26 = DATE_AND_TIME ( #132, #41 ) ;
#27 = PLANE ( 'NONE',  #74 ) ;
#28 = CC_DESIGN_APPROVAL ( #48, ( #51 ) ) ;
#29 = DIRECTION ( 'NONE',  ( -0.000000000000000000, -0.000000000000000000, -1.000000000000000000 ) ) ;
#30 = CIRCLE ( 'NONE', #31, 12.69999999999999929 ) ;
#31 = AXIS2_PLACEMENT_3D ( 'NONE', #160, #174, #4 ) ;
#32 = ORGANIZATION ( 'UNSPECIFIED', 'UNSPECIFIED', '' ) ;
#33 = CC_DESIGN_DATE_AND_TIME_ASSIGNMENT ( #140, #55, ( #117 ) ) ;
#34 = ORIENTED_EDGE ( 'NONE', *, *, #170, .F. ) ;
#35 = PERSON_AND_ORGANIZATION ( #88, #32 ) ;
#36 = DIRECTION ( 'NONE',  ( -1.000000000000000000, 0.000000000000000000, 0.000000000000000000 ) ) ;
#37 = DIRECTION ( 'NONE',  ( -0.000000000000000000, -0.000000000000000000, -1.000000000000000000 ) ) ;
#38 = DIRECTION ( 'NONE',  ( 0.000000000000000000, 0.000000000000000000, 1.000000000000000000 ) ) ;
#39 = ORIENTED_EDGE ( 'NONE', *, *, #126, .F. ) ;
#40 = CARTESIAN_POINT ( 'NONE',  ( 0.000000000000000000, 0.000000000000000000, 0.000000000000000000 ) ) ;
#41 = LOCAL_TIME ( 16, 59, 8.000000000000000000, #171 ) ;
#42 = CIRCLE ( 'NONE', #15, 12.69999999999999929 ) ;
#43 =( LENGTH_UNIT ( ) NAMED_UNIT ( * ) SI_UNIT ( .MILLI., .METRE. ) );
#44 = FACE_OUTER_BOUND ( 'NONE', #70, .T. ) ;
#45 = APPROVAL ( #148, 'UNSPECIFIED' ) ;
#46 = PERSON_AND_ORGANIZATION ( #88, #32 ) ;
#47 = DESIGN_CONTEXT ( 'detailed design', #161, 'design' ) ;
#48 = APPROVAL ( #58, 'UNSPECIFIED' ) ;
#49 = PRODUCT_RELATED_PRODUCT_CATEGORY ( 'detail', '', ( #99 ) ) ;
#50 = DIRECTION ( 'NONE',  ( -0.000000000000000000, -0.000000000000000000, -1.000000000000000000 ) ) ;
#51 = PRODUCT_DEFINITION_FORMATION_WITH_SPECIFIED_SOURCE ( 'ANY', '', #99, .NOT_KNOWN. ) ;
#52 = EDGE_LOOP ( 'NONE', ( #90, #56, #9, #157 ) ) ;
#53 = CARTESIAN_POINT ( 'NONE',  ( -12.69999999999999929, 0.000000000000000000, 1.500000000000000000 ) ) ;
#54 = PERSON_AND_ORGANIZATION_ROLE ( 'design_supplier' ) ;
#55 = DATE_TIME_ROLE ( 'classification_date' ) ;
#56 = ORIENTED_EDGE ( 'NONE', *, *, #170, .T. ) ;
#57 = PRODUCT_DEFINITION ( 'UNKNOWN', '', #51, #47 ) ;
#58 = APPROVAL_STATUS ( 'not_yet_approved' ) ;
#59 = COORDINATED_UNIVERSAL_TIME_OFFSET ( 5, 0, .BEHIND. ) ;
#60 = ADVANCED_FACE ( 'NONE', ( #44 ), #27, .F. ) ;
#61 = ADVANCED_FACE ( 'NONE', ( #112 ), #78, .T. ) ;
#62 = CC_DESIGN_APPROVAL ( #45, ( #57 ) ) ;
#63 = CARTESIAN_POINT ( 'NONE',  ( -12.69999999999999929, 0.000000000000000000, 1.500000000000000000 ) ) ;
#64 = PERSON_AND_ORGANIZATION ( #88, #32 ) ;
#65 = DIRECTION ( 'NONE',  ( -1.000000000000000000, 0.000000000000000000, 0.000000000000000000 ) ) ;
#66 = CARTESIAN_POINT ( 'NONE',  ( 12.69999999999999929, 1.555301434917138433E-15, 0.000000000000000000 ) ) ;
#67 = PERSON_AND_ORGANIZATION_ROLE ( 'creator' ) ;
#68 = CIRCLE ( 'NONE', #113, 12.69999999999999929 ) ;
#69 = CC_DESIGN_PERSON_AND_ORGANIZATION_ASSIGNMENT ( #8, #67, ( #57 ) ) ;
#70 = EDGE_LOOP ( 'NONE', ( #39, #18 ) ) ;
#71 = AXIS2_PLACEMENT_3D ( 'NONE', #25, #131, #36 ) ;
#72 = CC_DESIGN_PERSON_AND_ORGANIZATION_ASSIGNMENT ( #169, #54, ( #51 ) ) ;
#73 = CIRCLE ( 'NONE', #21, 12.69999999999999929 ) ;
#74 = AXIS2_PLACEMENT_3D ( 'NONE', #116, #38, #118 ) ;
#75 = VERTEX_POINT ( 'NONE', #91 ) ;
#76 = COORDINATED_UNIVERSAL_TIME_OFFSET ( 5, 0, .BEHIND. ) ;
#77 = PERSON_AND_ORGANIZATION ( #88, #32 ) ;
#78 = CYLINDRICAL_SURFACE ( 'NONE', #71, 12.69999999999999929 ) ;
#79 = CARTESIAN_POINT ( 'NONE',  ( 0.000000000000000000, 0.000000000000000000, 1.500000000000000000 ) ) ;
#80 = CARTESIAN_POINT ( 'NONE',  ( 0.000000000000000000, 0.000000000000000000, 1.500000000000000000 ) ) ;
#81 = DIRECTION ( 'NONE',  ( 0.000000000000000000, 0.000000000000000000, 1.000000000000000000 ) ) ;
#82 = DIRECTION ( 'NONE',  ( 1.000000000000000000, 0.000000000000000000, 0.000000000000000000 ) ) ;
#83 = CC_DESIGN_PERSON_AND_ORGANIZATION_ASSIGNMENT ( #64, #97, ( #51 ) ) ;
#84 = DATE_TIME_ROLE ( 'creation_date' ) ;
#85 =( NAMED_UNIT ( * ) SI_UNIT ( $, .STERADIAN. ) SOLID_ANGLE_UNIT ( ) );
#86 = CC_DESIGN_APPROVAL ( #129, ( #117 ) ) ;
#87 = PRODUCT_DEFINITION_SHAPE ( 'NONE', 'NONE',  #57 ) ;
#88 = PERSON ( 'UNSPECIFIED', 'UNSPECIFIED', 'UNSPECIFIED', ('UNSPECIFIED'), ('UNSPECIFIED'), ('UNSPECIFIED') ) ;
#89 = APPROVAL_PERSON_ORGANIZATION ( #101, #48, #133 ) ;
#90 = ORIENTED_EDGE ( 'NONE', *, *, #163, .F. ) ;
#91 = CARTESIAN_POINT ( 'NONE',  ( -12.69999999999999929, 0.000000000000000000, 0.000000000000000000 ) ) ;
#92 = VERTEX_POINT ( 'NONE', #66 ) ;
#93 = PERSON_AND_ORGANIZATION ( #88, #32 ) ;
#94 = CALENDAR_DATE ( 2022, 3, 1 ) ;
#95 = ADVANCED_BREP_SHAPE_REPRESENTATION ( 'Web Model 19822_19827', ( #123, #104 ), #173 ) ;
#96 = CARTESIAN_POINT ( 'NONE',  ( 12.69999999999999929, 1.555301434917138433E-15, 1.500000000000000000 ) ) ;
#97 = PERSON_AND_ORGANIZATION_ROLE ( 'creator' ) ;
#98 = APPROVAL_PERSON_ORGANIZATION ( #46, #129, #109 ) ;
#99 = PRODUCT ( 'Web Model 19822_19827', 'Web Model 19822_19827', '', ( #6 ) ) ;
#100 = APPROVAL_DATE_TIME ( #124, #129 ) ;
#101 = PERSON_AND_ORGANIZATION ( #88, #32 ) ;
#102 = EDGE_CURVE ( 'NONE', #151, #75, #143, .T. ) ;
#103 = VECTOR ( 'NONE', #50, 1000.000000000000000 ) ;
#104 = AXIS2_PLACEMENT_3D ( 'NONE', #22, #134, #3 ) ;
#105 = VECTOR ( 'NONE', #29, 1000.000000000000000 ) ;
#106 = DIRECTION ( 'NONE',  ( 1.000000000000000000, 0.000000000000000000, -0.000000000000000000 ) ) ;
#107 = CALENDAR_DATE ( 2022, 3, 1 ) ;
#108 = PERSON_AND_ORGANIZATION_ROLE ( 'design_owner' ) ;
#109 = APPROVAL_ROLE ( '' ) ;
#110 = APPROVAL_DATE_TIME ( #26, #48 ) ;
#111 = SECURITY_CLASSIFICATION_LEVEL ( 'unclassified' ) ;
#112 = FACE_OUTER_BOUND ( 'NONE', #52, .T. ) ;
#113 = AXIS2_PLACEMENT_3D ( 'NONE', #40, #142, #130 ) ;
#114 = CALENDAR_DATE ( 2022, 3, 1 ) ;
#115 = EDGE_CURVE ( 'NONE', #92, #75, #42, .T. ) ;
#116 = CARTESIAN_POINT ( 'NONE',  ( 0.000000000000000000, 0.000000000000000000, 0.000000000000000000 ) ) ;
#117 = SECURITY_CLASSIFICATION ( '', '', #111 ) ;
#118 = DIRECTION ( 'NONE',  ( 1.000000000000000000, 0.000000000000000000, -0.000000000000000000 ) ) ;
#119 = LOCAL_TIME ( 16, 59, 8.000000000000000000, #59 ) ;
#120 =( NAMED_UNIT ( * ) PLANE_ANGLE_UNIT ( ) SI_UNIT ( $, .RADIAN. ) );
#121 = CALENDAR_DATE ( 2022, 3, 1 ) ;
#122 = EDGE_LOOP ( 'NONE', ( #125, #153 ) ) ;
#123 = MANIFOLD_SOLID_BREP ( 'Boss-Extrude1', #11 ) ;
#124 = DATE_AND_TIME ( #94, #152 ) ;
#125 = ORIENTED_EDGE ( 'NONE', *, *, #138, .T. ) ;
#126 = EDGE_CURVE ( 'NONE', #75, #92, #68, .T. ) ;
#127 = UNCERTAINTY_MEASURE_WITH_UNIT (LENGTH_MEASURE( 1.000000000000000082E-05 ), #43, 'distance_accuracy_value', 'NONE');
#128 = CARTESIAN_POINT ( 'NONE',  ( 12.69999999999999929, 1.555301434917138433E-15, 1.500000000000000000 ) ) ;
#129 = APPROVAL ( #162, 'UNSPECIFIED' ) ;
#130 = DIRECTION ( 'NONE',  ( 1.000000000000000000, 0.000000000000000000, 0.000000000000000000 ) ) ;
#131 = DIRECTION ( 'NONE',  ( -0.000000000000000000, -0.000000000000000000, -1.000000000000000000 ) ) ;
#132 = CALENDAR_DATE ( 2022, 3, 1 ) ;
#133 = APPROVAL_ROLE ( '' ) ;
#134 = DIRECTION ( 'NONE',  ( 0.000000000000000000, 0.000000000000000000, 1.000000000000000000 ) ) ;
#135 = APPLICATION_CONTEXT ( 'configuration controlled 3d designs of mechanical parts and assemblies' ) ;
#136 = DATE_AND_TIME ( #121, #150 ) ;
#137 = APPLICATION_PROTOCOL_DEFINITION ( 'international standard', 'config_control_design', 1994, #161 ) ;
#138 = EDGE_CURVE ( 'NONE', #151, #20, #73, .T. ) ;
#139 = AXIS2_PLACEMENT_3D ( 'NONE', #154, #37, #65 ) ;
#140 = DATE_AND_TIME ( #114, #119 ) ;
#141 = CYLINDRICAL_SURFACE ( 'NONE', #139, 12.69999999999999929 ) ;
#142 = DIRECTION ( 'NONE',  ( 0.000000000000000000, 0.000000000000000000, 1.000000000000000000 ) ) ;
#143 = LINE ( 'NONE', #53, #103 ) ;
#144 = DIRECTION ( 'NONE',  ( 0.000000000000000000, 0.000000000000000000, 1.000000000000000000 ) ) ;
#145 = ORIENTED_EDGE ( 'NONE', *, *, #102, .T. ) ;
#146 = AXIS2_PLACEMENT_3D ( 'NONE', #80, #16, #106 ) ;
#147 = APPROVAL_ROLE ( '' ) ;
#148 = APPROVAL_STATUS ( 'not_yet_approved' ) ;
#149 = PERSON_AND_ORGANIZATION_ROLE ( 'classification_officer' ) ;
#150 = LOCAL_TIME ( 16, 59, 8.000000000000000000, #23 ) ;
#151 = VERTEX_POINT ( 'NONE', #63 ) ;
#152 = LOCAL_TIME ( 16, 59, 8.000000000000000000, #19 ) ;
#153 = ORIENTED_EDGE ( 'NONE', *, *, #163, .T. ) ;
#154 = CARTESIAN_POINT ( 'NONE',  ( 0.000000000000000000, 0.000000000000000000, 1.500000000000000000 ) ) ;
#155 = CC_DESIGN_DATE_AND_TIME_ASSIGNMENT ( #5, #84, ( #57 ) ) ;
#156 = LOCAL_TIME ( 16, 59, 8.000000000000000000, #76 ) ;
#157 = ORIENTED_EDGE ( 'NONE', *, *, #102, .F. ) ;
#158 = PLANE ( 'NONE',  #146 ) ;
#159 = ORIENTED_EDGE ( 'NONE', *, *, #138, .F. ) ;
#160 = CARTESIAN_POINT ( 'NONE',  ( 0.000000000000000000, 0.000000000000000000, 1.500000000000000000 ) ) ;
#161 = APPLICATION_CONTEXT ( 'configuration controlled 3d designs of mechanical parts and assemblies' ) ;
#162 = APPROVAL_STATUS ( 'not_yet_approved' ) ;
#163 = EDGE_CURVE ( 'NONE', #20, #151, #30, .T. ) ;
#164 = FACE_OUTER_BOUND ( 'NONE', #167, .T. ) ;
#165 = FACE_OUTER_BOUND ( 'NONE', #122, .T. ) ;
#166 = CC_DESIGN_PERSON_AND_ORGANIZATION_ASSIGNMENT ( #93, #149, ( #117 ) ) ;
#167 = EDGE_LOOP ( 'NONE', ( #34, #159, #145, #2 ) ) ;
#168 = ADVANCED_FACE ( 'NONE', ( #164 ), #141, .T. ) ;
#169 = PERSON_AND_ORGANIZATION ( #88, #32 ) ;
#170 = EDGE_CURVE ( 'NONE', #20, #92, #7, .T. ) ;
#171 = COORDINATED_UNIVERSAL_TIME_OFFSET ( 5, 0, .BEHIND. ) ;
#172 = APPROVAL_PERSON_ORGANIZATION ( #77, #45, #147 ) ;
#173 =( GEOMETRIC_REPRESENTATION_CONTEXT ( 3 ) GLOBAL_UNCERTAINTY_ASSIGNED_CONTEXT ( ( #127 ) ) GLOBAL_UNIT_ASSIGNED_CONTEXT ( ( #43, #120, #85 ) ) REPRESENTATION_CONTEXT ( 'NONE', 'WORKASPACE' ) );
#174 = DIRECTION ( 'NONE',  ( 0.000000000000000000, 0.000000000000000000, 1.000000000000000000 ) ) ;
#175 = APPROVAL_DATE_TIME ( #136, #45 ) ;
ENDSEC;
END-ISO-10303-21;
