ISO-10303-21;
HEADER;
FILE_DESCRIPTION (( 'STEP AP203' ),
    '1' );
FILE_NAME ('Web Model 34467_34477.step',
    '2017-06-14T17:57:42',
    ( '' ),
    ( '' ),
    'SwSTEP 2.0',
    'SolidWorks 2016',
    '' );
FILE_SCHEMA (( 'CONFIG_CONTROL_DESIGN' ));
ENDSEC;

DATA;
#1 = PRODUCT_DEFINITION_SHAPE ( 'NONE', 'NONE',  #160 ) ;
#2 =( NAMED_UNIT ( * ) SI_UNIT ( $, .STERADIAN. ) SOLID_ANGLE_UNIT ( ) );
#3 = PERSON_AND_ORGANIZATION ( #36, #54 ) ;
#4 = PERSON_AND_ORGANIZATION_ROLE ( 'design_owner' ) ;
#5 = VERTEX_POINT ( 'NONE', #28 ) ;
#6 = CC_DESIGN_DATE_AND_TIME_ASSIGNMENT ( #9, #49, ( #50 ) ) ;
#7 = AXIS2_PLACEMENT_3D ( 'NONE', #172, #132, #131 ) ;
#8 = LOCAL_TIME ( 13, 57, 42.00000000000000000, #45 ) ;
#9 = DATE_AND_TIME ( #165, #12 ) ;
#10 = COORDINATED_UNIVERSAL_TIME_OFFSET ( 5, 0, .BEHIND. ) ;
#11 = AXIS2_PLACEMENT_3D ( 'NONE', #20, #63, #56 ) ;
#12 = LOCAL_TIME ( 13, 57, 42.00000000000000000, #105 ) ;
#13 = SECURITY_CLASSIFICATION_LEVEL ( 'unclassified' ) ;
#14 = PERSON_AND_ORGANIZATION ( #36, #54 ) ;
#15 = CARTESIAN_POINT ( 'NONE',  ( 0.0000000000000000000, 0.0000000000000000000, 0.6250000000000000000 ) ) ;
#16 = VERTEX_POINT ( 'NONE', #74 ) ;
#17 = CIRCLE ( 'NONE', #117, 37.50000000000000700 ) ;
#18 = CC_DESIGN_PERSON_AND_ORGANIZATION_ASSIGNMENT ( #3, #4, ( #148 ) ) ;
#19 = DIRECTION ( 'NONE',  ( -1.000000000000000000, 0.0000000000000000000, 0.0000000000000000000 ) ) ;
#20 = CARTESIAN_POINT ( 'NONE',  ( 0.0000000000000000000, 0.0000000000000000000, -0.6250000000000000000 ) ) ;
#21 = LOCAL_TIME ( 13, 57, 42.00000000000000000, #155 ) ;
#22 = APPROVAL_PERSON_ORGANIZATION ( #139, #60, #62 ) ;
#23 = VERTEX_POINT ( 'NONE', #102 ) ;
#24 = ORIENTED_EDGE ( 'NONE', *, *, #135, .T. ) ;
#25 = ADVANCED_FACE ( 'NONE', ( #100 ), #46, .F. ) ;
#26 = EDGE_LOOP ( 'NONE', ( #110, #48, #47, #39 ) ) ;
#27 = FACE_OUTER_BOUND ( 'NONE', #145, .T. ) ;
#28 = CARTESIAN_POINT ( 'NONE',  ( 37.50000000000000700, 4.592425496802575200E-015, 0.6250000000000000000 ) ) ;
#29 = APPROVAL_DATE_TIME ( #175, #115 ) ;
#30 = CARTESIAN_POINT ( 'NONE',  ( 0.0000000000000000000, 0.0000000000000000000, -0.6250000000000000000 ) ) ;
#31 = DIRECTION ( 'NONE',  ( 0.0000000000000000000, 0.0000000000000000000, 1.000000000000000000 ) ) ;
#32 = PERSON_AND_ORGANIZATION_ROLE ( 'design_supplier' ) ;
#33 = CALENDAR_DATE ( 2017, 14, 6 ) ;
#34 = CARTESIAN_POINT ( 'NONE',  ( 0.0000000000000000000, 0.0000000000000000000, 0.0000000000000000000 ) ) ;
#35 = CARTESIAN_POINT ( 'NONE',  ( 0.0000000000000000000, 0.0000000000000000000, -0.6250000000000000000 ) ) ;
#36 = PERSON ( 'UNSPECIFIED', 'UNSPECIFIED', 'UNSPECIFIED', ('UNSPECIFIED'), ('UNSPECIFIED'), ('UNSPECIFIED') ) ;
#37 = APPROVAL_STATUS ( 'not_yet_approved' ) ;
#38 = PERSON_AND_ORGANIZATION ( #36, #54 ) ;
#39 = ORIENTED_EDGE ( 'NONE', *, *, #66, .F. ) ;
#40 = APPLICATION_PROTOCOL_DEFINITION ( 'international standard', 'config_control_design', 1994, #146 ) ;
#41 = DATE_AND_TIME ( #159, #8 ) ;
#42 = APPROVAL_PERSON_ORGANIZATION ( #142, #151, #116 ) ;
#43 = ORIENTED_EDGE ( 'NONE', *, *, #98, .F. ) ;
#44 = AXIS2_PLACEMENT_3D ( 'NONE', #147, #112, #87 ) ;
#45 = COORDINATED_UNIVERSAL_TIME_OFFSET ( 5, 0, .BEHIND. ) ;
#46 = PLANE ( 'NONE',  #108 ) ;
#47 = ORIENTED_EDGE ( 'NONE', *, *, #98, .T. ) ;
#48 = ORIENTED_EDGE ( 'NONE', *, *, #170, .T. ) ;
#49 = DATE_TIME_ROLE ( 'classification_date' ) ;
#50 = SECURITY_CLASSIFICATION ( '', '', #13 ) ;
#51 = AXIS2_PLACEMENT_3D ( 'NONE', #34, #31, #114 ) ;
#52 = VECTOR ( 'NONE', #84, 1000.000000000000000 ) ;
#53 = CIRCLE ( 'NONE', #91, 37.50000000000000700 ) ;
#54 = ORGANIZATION ( 'UNSPECIFIED', 'UNSPECIFIED', '' ) ;
#55 = UNCERTAINTY_MEASURE_WITH_UNIT (LENGTH_MEASURE( 1.000000000000000100E-005 ), #73, 'distance_accuracy_value', 'NONE');
#56 = DIRECTION ( 'NONE',  ( 1.000000000000000000, 0.0000000000000000000, 0.0000000000000000000 ) ) ;
#57 = EDGE_LOOP ( 'NONE', ( #137, #43 ) ) ;
#58 = CYLINDRICAL_SURFACE ( 'NONE', #126, 37.50000000000000700 ) ;
#59 = CC_DESIGN_PERSON_AND_ORGANIZATION_ASSIGNMENT ( #111, #164, ( #160 ) ) ;
#60 = APPROVAL ( #79, 'UNSPECIFIED' ) ;
#61 = CYLINDRICAL_SURFACE ( 'NONE', #7, 37.50000000000000700 ) ;
#62 = APPROVAL_ROLE ( '' ) ;
#63 = DIRECTION ( 'NONE',  ( 0.0000000000000000000, 0.0000000000000000000, 1.000000000000000000 ) ) ;
#64 = FACE_OUTER_BOUND ( 'NONE', #128, .T. ) ;
#65 = PERSON_AND_ORGANIZATION_ROLE ( 'creator' ) ;
#66 = EDGE_CURVE ( 'NONE', #23, #16, #77, .T. ) ;
#67 = APPLICATION_CONTEXT ( 'configuration controlled 3d designs of mechanical parts and assemblies' ) ;
#68 = DIRECTION ( 'NONE',  ( 0.0000000000000000000, 0.0000000000000000000, 1.000000000000000000 ) ) ;
#69 = CC_DESIGN_SECURITY_CLASSIFICATION ( #50, ( #124 ) ) ;
#70 = ORIENTED_EDGE ( 'NONE', *, *, #71, .F. ) ;
#71 = EDGE_CURVE ( 'NONE', #23, #5, #53, .T. ) ;
#72 = ORIENTED_EDGE ( 'NONE', *, *, #140, .T. ) ;
#73 =( LENGTH_UNIT ( ) NAMED_UNIT ( * ) SI_UNIT ( .MILLI., .METRE. ) );
#74 = CARTESIAN_POINT ( 'NONE',  ( -37.50000000000000700, 0.0000000000000000000, -0.6250000000000000000 ) ) ;
#75 = APPLICATION_PROTOCOL_DEFINITION ( 'international standard', 'config_control_design', 1994, #67 ) ;
#76 = CC_DESIGN_APPROVAL ( #115, ( #124 ) ) ;
#77 = LINE ( 'NONE', #88, #52 ) ;
#78 = APPROVAL_DATE_TIME ( #41, #60 ) ;
#79 = APPROVAL_STATUS ( 'not_yet_approved' ) ;
#80 = CC_DESIGN_APPROVAL ( #60, ( #160 ) ) ;
#81 = ADVANCED_FACE ( 'NONE', ( #64 ), #58, .T. ) ;
#82 = ADVANCED_BREP_SHAPE_REPRESENTATION ( 'Web Model 34467_34477', ( #86, #51 ), #144 ) ;
#83 =( NAMED_UNIT ( * ) PLANE_ANGLE_UNIT ( ) SI_UNIT ( $, .RADIAN. ) );
#84 = DIRECTION ( 'NONE',  ( -0.0000000000000000000, -0.0000000000000000000, -1.000000000000000000 ) ) ;
#85 = DIRECTION ( 'NONE',  ( -0.0000000000000000000, -0.0000000000000000000, -1.000000000000000000 ) ) ;
#86 = MANIFOLD_SOLID_BREP ( 'Boss-Extrude1', #138 ) ;
#87 = DIRECTION ( 'NONE',  ( 1.000000000000000000, 0.0000000000000000000, -0.0000000000000000000 ) ) ;
#88 = CARTESIAN_POINT ( 'NONE',  ( -37.50000000000000700, 0.0000000000000000000, 0.6250000000000000000 ) ) ;
#89 = DIRECTION ( 'NONE',  ( 1.000000000000000000, 0.0000000000000000000, 0.0000000000000000000 ) ) ;
#90 = DIRECTION ( 'NONE',  ( 0.0000000000000000000, 0.0000000000000000000, 1.000000000000000000 ) ) ;
#91 = AXIS2_PLACEMENT_3D ( 'NONE', #15, #129, #109 ) ;
#92 = DATE_AND_TIME ( #95, #106 ) ;
#93 = VECTOR ( 'NONE', #174, 1000.000000000000000 ) ;
#94 = DATE_TIME_ROLE ( 'creation_date' ) ;
#95 = CALENDAR_DATE ( 2017, 14, 6 ) ;
#96 = CC_DESIGN_PERSON_AND_ORGANIZATION_ASSIGNMENT ( #150, #65, ( #124 ) ) ;
#97 = APPROVAL_PERSON_ORGANIZATION ( #14, #115, #166 ) ;
#98 = EDGE_CURVE ( 'NONE', #161, #16, #17, .T. ) ;
#99 = PLANE ( 'NONE',  #44 ) ;
#100 = FACE_OUTER_BOUND ( 'NONE', #57, .T. ) ;
#101 = CARTESIAN_POINT ( 'NONE',  ( 37.50000000000000700, 4.592425496802575200E-015, -0.6250000000000000000 ) ) ;
#102 = CARTESIAN_POINT ( 'NONE',  ( -37.50000000000000700, 0.0000000000000000000, 0.6250000000000000000 ) ) ;
#103 = LINE ( 'NONE', #121, #93 ) ;
#104 = PRODUCT_RELATED_PRODUCT_CATEGORY ( 'detail', '', ( #148 ) ) ;
#105 = COORDINATED_UNIVERSAL_TIME_OFFSET ( 5, 0, .BEHIND. ) ;
#106 = LOCAL_TIME ( 13, 57, 42.00000000000000000, #10 ) ;
#107 = ORIENTED_EDGE ( 'NONE', *, *, #170, .F. ) ;
#108 = AXIS2_PLACEMENT_3D ( 'NONE', #30, #90, #118 ) ;
#109 = DIRECTION ( 'NONE',  ( 1.000000000000000000, 0.0000000000000000000, 0.0000000000000000000 ) ) ;
#110 = ORIENTED_EDGE ( 'NONE', *, *, #140, .F. ) ;
#111 = PERSON_AND_ORGANIZATION ( #36, #54 ) ;
#112 = DIRECTION ( 'NONE',  ( 0.0000000000000000000, 0.0000000000000000000, 1.000000000000000000 ) ) ;
#113 = AXIS2_PLACEMENT_3D ( 'NONE', #154, #167, #89 ) ;
#114 = DIRECTION ( 'NONE',  ( 1.000000000000000000, 0.0000000000000000000, 0.0000000000000000000 ) ) ;
#115 = APPROVAL ( #37, 'UNSPECIFIED' ) ;
#116 = APPROVAL_ROLE ( '' ) ;
#117 = AXIS2_PLACEMENT_3D ( 'NONE', #35, #68, #153 ) ;
#118 = DIRECTION ( 'NONE',  ( 1.000000000000000000, 0.0000000000000000000, -0.0000000000000000000 ) ) ;
#119 = FACE_OUTER_BOUND ( 'NONE', #26, .T. ) ;
#120 = CALENDAR_DATE ( 2017, 14, 6 ) ;
#121 = CARTESIAN_POINT ( 'NONE',  ( 37.50000000000000700, 4.592425496802575200E-015, 0.6250000000000000000 ) ) ;
#122 = ADVANCED_FACE ( 'NONE', ( #27 ), #99, .T. ) ;
#123 = ORIENTED_EDGE ( 'NONE', *, *, #66, .T. ) ;
#124 = PRODUCT_DEFINITION_FORMATION_WITH_SPECIFIED_SOURCE ( 'ANY', '', #148, .NOT_KNOWN. ) ;
#125 = DATE_AND_TIME ( #33, #21 ) ;
#126 = AXIS2_PLACEMENT_3D ( 'NONE', #149, #85, #19 ) ;
#127 = ADVANCED_FACE ( 'NONE', ( #119 ), #61, .T. ) ;
#128 = EDGE_LOOP ( 'NONE', ( #107, #70, #123, #24 ) ) ;
#129 = DIRECTION ( 'NONE',  ( 0.0000000000000000000, 0.0000000000000000000, 1.000000000000000000 ) ) ;
#130 = APPROVAL_DATE_TIME ( #125, #151 ) ;
#131 = DIRECTION ( 'NONE',  ( -1.000000000000000000, 0.0000000000000000000, 0.0000000000000000000 ) ) ;
#132 = DIRECTION ( 'NONE',  ( -0.0000000000000000000, -0.0000000000000000000, -1.000000000000000000 ) ) ;
#133 = CC_DESIGN_DATE_AND_TIME_ASSIGNMENT ( #92, #94, ( #160 ) ) ;
#134 = COORDINATED_UNIVERSAL_TIME_OFFSET ( 5, 0, .BEHIND. ) ;
#135 = EDGE_CURVE ( 'NONE', #16, #161, #173, .T. ) ;
#136 = DESIGN_CONTEXT ( 'detailed design', #67, 'design' ) ;
#137 = ORIENTED_EDGE ( 'NONE', *, *, #135, .F. ) ;
#138 = CLOSED_SHELL ( 'NONE', ( #127, #81, #122, #25 ) ) ;
#139 = PERSON_AND_ORGANIZATION ( #36, #54 ) ;
#140 = EDGE_CURVE ( 'NONE', #5, #23, #141, .T. ) ;
#141 = CIRCLE ( 'NONE', #113, 37.50000000000000700 ) ;
#142 = PERSON_AND_ORGANIZATION ( #36, #54 ) ;
#143 = CC_DESIGN_PERSON_AND_ORGANIZATION_ASSIGNMENT ( #38, #162, ( #50 ) ) ;
#144 =( GEOMETRIC_REPRESENTATION_CONTEXT ( 3 ) GLOBAL_UNCERTAINTY_ASSIGNED_CONTEXT ( ( #55 ) ) GLOBAL_UNIT_ASSIGNED_CONTEXT ( ( #73, #83, #2 ) ) REPRESENTATION_CONTEXT ( 'NONE', 'WORKASPACE' ) );
#145 = EDGE_LOOP ( 'NONE', ( #156, #72 ) ) ;
#146 = APPLICATION_CONTEXT ( 'configuration controlled 3d designs of mechanical parts and assemblies' ) ;
#147 = CARTESIAN_POINT ( 'NONE',  ( 0.0000000000000000000, 0.0000000000000000000, 0.6250000000000000000 ) ) ;
#148 = PRODUCT ( 'Web Model 34467_34477', 'Web Model 34467_34477', '', ( #158 ) ) ;
#149 = CARTESIAN_POINT ( 'NONE',  ( 0.0000000000000000000, 0.0000000000000000000, 0.6250000000000000000 ) ) ;
#150 = PERSON_AND_ORGANIZATION ( #36, #54 ) ;
#151 = APPROVAL ( #152, 'UNSPECIFIED' ) ;
#152 = APPROVAL_STATUS ( 'not_yet_approved' ) ;
#153 = DIRECTION ( 'NONE',  ( 1.000000000000000000, 0.0000000000000000000, 0.0000000000000000000 ) ) ;
#154 = CARTESIAN_POINT ( 'NONE',  ( 0.0000000000000000000, 0.0000000000000000000, 0.6250000000000000000 ) ) ;
#155 = COORDINATED_UNIVERSAL_TIME_OFFSET ( 5, 0, .BEHIND. ) ;
#156 = ORIENTED_EDGE ( 'NONE', *, *, #71, .T. ) ;
#157 = CC_DESIGN_PERSON_AND_ORGANIZATION_ASSIGNMENT ( #169, #32, ( #124 ) ) ;
#158 = MECHANICAL_CONTEXT ( 'NONE', #146, 'mechanical' ) ;
#159 = CALENDAR_DATE ( 2017, 14, 6 ) ;
#160 = PRODUCT_DEFINITION ( 'UNKNOWN', '', #124, #136 ) ;
#161 = VERTEX_POINT ( 'NONE', #101 ) ;
#162 = PERSON_AND_ORGANIZATION_ROLE ( 'classification_officer' ) ;
#163 = SHAPE_DEFINITION_REPRESENTATION ( #1, #82 ) ;
#164 = PERSON_AND_ORGANIZATION_ROLE ( 'creator' ) ;
#165 = CALENDAR_DATE ( 2017, 14, 6 ) ;
#166 = APPROVAL_ROLE ( '' ) ;
#167 = DIRECTION ( 'NONE',  ( 0.0000000000000000000, 0.0000000000000000000, 1.000000000000000000 ) ) ;
#168 = CC_DESIGN_APPROVAL ( #151, ( #50 ) ) ;
#169 = PERSON_AND_ORGANIZATION ( #36, #54 ) ;
#170 = EDGE_CURVE ( 'NONE', #5, #161, #103, .T. ) ;
#171 = LOCAL_TIME ( 13, 57, 42.00000000000000000, #134 ) ;
#172 = CARTESIAN_POINT ( 'NONE',  ( 0.0000000000000000000, 0.0000000000000000000, 0.6250000000000000000 ) ) ;
#173 = CIRCLE ( 'NONE', #11, 37.50000000000000700 ) ;
#174 = DIRECTION ( 'NONE',  ( -0.0000000000000000000, -0.0000000000000000000, -1.000000000000000000 ) ) ;
#175 = DATE_AND_TIME ( #120, #171 ) ;
ENDSEC;
END-ISO-10303-21;
