  0
SECTION
  2
HEADER
  9
$ACADVER
  1
AC1012
  9
$DWGCODEPAGE
  3
ANSI_1252
  9
$INSBASE
 10
0.0
 20
0.0
 30
0.0
  9
$EXTMIN
 10
0.1873410096542969
 20
0.4763624948614087
 30
-0.1677158268838905
  9
$EXTMAX
 10
17.21881595032996
 20
11.50749851406769
 30
0.1677065284914212
  9
$LIMMIN
 10
0.0
 20
0.0
  9
$LIMMAX
 10
17.0
 20
11.0
  9
$ORTHOMODE
 70
     1
  9
$REGENMODE
 70
     1
  9
$FILLMODE
 70
     1
  9
$QTEXTMODE
 70
     0
  9
$MIRRTEXT
 70
     0
  9
$DRAGMODE
 70
     2
  9
$LTSCALE
 40
0.35
  9
$OSMODE
 70
    37
  9
$ATTMODE
 70
     1
  9
$TEXTSIZE
 40
0.1182148681910236
  9
$TRACEWID
 40
0.05
  9
$TEXTSTYLE
  7
BLOCK
  9
$CLAYER
  8
S2
  9
$CELTYPE
  6
CONTINUOUS
  9
$CECOLOR
 62
   256
  9
$CELTSCALE
 40
1.0
  9
$DELOBJ
 70
     1
  9
$DISPSILH
 70
     0
  9
$DIMSCALE
 40
1.0
  9
$DIMASZ
 40
0.18
  9
$DIMEXO
 40
0.04
  9
$DIMDLI
 40
0.38
  9
$DIMRND
 40
0.0
  9
$DIMDLE
 40
0.0
  9
$DIMEXE
 40
0.04
  9
$DIMTP
 40
0.0
  9
$DIMTM
 40
0.0
  9
$DIMTXT
 40
0.1
  9
$DIMCEN
 40
0.09
  9
$DIMTSZ
 40
0.0
  9
$DIMTOL
 70
     0
  9
$DIMLIM
 70
     0
  9
$DIMTIH
 70
     1
  9
$DIMTOH
 70
     1
  9
$DIMSE1
 70
     0
  9
$DIMSE2
 70
     0
  9
$DIMTAD
 70
     0
  9
$DIMZIN
 70
     0
  9
$DIMBLK
  1

  9
$DIMASO
 70
     0
  9
$DIMSHO
 70
     0
  9
$DIMPOST
  1

  9
$DIMAPOST
  1

  9
$DIMALT
 70
     0
  9
$DIMALTD
 70
     2
  9
$DIMALTF
 40
25.4
  9
$DIMLFAC
 40
0.66666666
  9
$DIMTOFL
 70
     0
  9
$DIMTVP
 40
0.0
  9
$DIMTIX
 70
     0
  9
$DIMSOXD
 70
     0
  9
$DIMSAH
 70
     0
  9
$DIMBLK1
  1

  9
$DIMBLK2
  1

  9
$DIMSTYLE
  2
STANDARD
  9
$DIMCLRD
 70
     0
  9
$DIMCLRE
 70
     0
  9
$DIMCLRT
 70
     0
  9
$DIMTFAC
 40
1.0
  9
$DIMGAP
 40
0.09
  9
$DIMJUST
 70
     0
  9
$DIMSD1
 70
     0
  9
$DIMSD2
 70
     0
  9
$DIMTOLJ
 70
     1
  9
$DIMTZIN
 70
     0
  9
$DIMALTZ
 70
     0
  9
$DIMALTTZ
 70
     0
  9
$DIMFIT
 70
     0
  9
$DIMUPT
 70
     1
  9
$DIMUNIT
 70
     2
  9
$DIMDEC
 70
     3
  9
$DIMTDEC
 70
     3
  9
$DIMALTU
 70
     2
  9
$DIMALTTD
 70
     2
  9
$DIMTXSTY
  7
STANDARD
  9
$DIMAUNIT
 70
     0
  9
$LUNITS
 70
     2
  9
$LUPREC
 70
     8
  9
$SKETCHINC
 40
0.005
  9
$FILLETRAD
 40
0.01
  9
$AUNITS
 70
     0
  9
$AUPREC
 70
     0
  9
$MENU
  1
C:\R13\WIN\SUPPORT\ACAD
  9
$ELEVATION
 40
0.0
  9
$PELEVATION
 40
0.0
  9
$THICKNESS
 40
0.0
  9
$LIMCHECK
 70
     0
  9
$BLIPMODE
 70
     0
  9
$CHAMFERA
 40
0.3
  9
$CHAMFERB
 40
0.3
  9
$CHAMFERC
 40
0.0
  9
$CHAMFERD
 40
0.0
  9
$SKPOLY
 70
     0
  9
$TDCREATE
 40
2449547.490001851
  9
$TDUPDATE
 40
2452611.645046076
  9
$TDINDWG
 40
0.6091977662
  9
$TDUSRTIMER
 40
0.6091977662
  9
$USRTIMER
 70
     1
  9
$ANGBASE
 50
0.0
  9
$ANGDIR
 70
     0
  9
$PDMODE
 70
     0
  9
$PDSIZE
 40
0.0
  9
$PLINEWID
 40
0.03
  9
$COORDS
 70
     1
  9
$SPLFRAME
 70
     0
  9
$SPLINETYPE
 70
     6
  9
$SPLINESEGS
 70
     8
  9
$ATTDIA
 70
     0
  9
$ATTREQ
 70
     1
  9
$HANDLING
 70
-16383
  9
$HANDSEED
  5
63C6
  9
$SURFTAB1
 70
     6
  9
$SURFTAB2
 70
     6
  9
$SURFTYPE
 70
     6
  9
$SURFU
 70
     6
  9
$SURFV
 70
     6
  9
$UCSNAME
  2

  9
$UCSORG
 10
2.353318641884428
 20
8.017111620010812
 30
0.0
  9
$UCSXDIR
 10
1.0
 20
0.0
 30
0.0
  9
$UCSYDIR
 10
0.0
 20
1.0
 30
0.0
  9
$PUCSNAME
  2

  9
$PUCSORG
 10
0.0
 20
0.0
 30
0.0
  9
$PUCSXDIR
 10
1.0
 20
0.0
 30
0.0
  9
$PUCSYDIR
 10
0.0
 20
1.0
 30
0.0
  9
$USERI1
 70
     0
  9
$USERI2
 70
     0
  9
$USERI3
 70
     0
  9
$USERI4
 70
     0
  9
$USERI5
 70
     0
  9
$USERR1
 40
0.0
  9
$USERR2
 40
0.0
  9
$USERR3
 40
0.0
  9
$USERR4
 40
0.0
  9
$USERR5
 40
0.0
  9
$WORLDVIEW
 70
     1
  9
$SHADEDGE
 70
     3
  9
$SHADEDIF
 70
    70
  9
$TILEMODE
 70
     1
  9
$MAXACTVP
 70
    16
  9
$PINSBASE
 10
0.0
 20
0.0
 30
0.0
  9
$PLIMCHECK
 70
     0
  9
$PEXTMIN
 10
1.000000000000000E+20
 20
1.000000000000000E+20
 30
1.000000000000000E+20
  9
$PEXTMAX
 10
-1.000000000000000E+20
 20
-1.000000000000000E+20
 30
-1.000000000000000E+20
  9
$PLIMMIN
 10
0.0
 20
0.0
  9
$PLIMMAX
 10
12.0
 20
9.0
  9
$UNITMODE
 70
     0
  9
$VISRETAIN
 70
     0
  9
$PLINEGEN
 70
     0
  9
$PSLTSCALE
 70
     0
  9
$TREEDEPTH
 70
  3020
  9
$PICKSTYLE
 70
     1
  9
$CMLSTYLE
  2
STANDARD
  9
$CMLJUST
 70
     0
  9
$CMLSCALE
 40
1.0
  9
$SAVEIMAGES
 70
     1
  0
ENDSEC
  0
SECTION
  2
CLASSES
  0
CLASS
  1
LWPOLYLINE
  2
AcDbPolyline
  3
AutoCAD 2000
 90
    32768
280
     0
281
     1
  0
CLASS
  1
ACDBDICTIONARYWDFLT
  2
AcDbDictionaryWithDefault
  3
AutoCAD 2000
 90
    32768
280
     0
281
     0
  0
CLASS
  1
ACDBPLACEHOLDER
  2
AcDbPlaceHolder
  3
AutoCAD 2000
 90
    32768
280
     0
281
     0
  0
CLASS
  1
LAYOUT
  2
AcDbLayout
  3
AutoCAD 2000
 90
    32768
280
     0
281
     0
  0
CLASS
  1
DICTIONARYVAR
  2
AcDbDictionaryVar
  3
AutoCAD 2000
 90
    32768
280
     0
281
     0
  0
CLASS
  1
LONG_TRANSACTION
  2
AcDbLongTransaction
  3
AutoCAD 2000
 90
    32768
280
     0
281
     0
  0
CLASS
  1
LWPOLYLINE
  2
AcDbPolyline
  3
AutoCAD 2000
 90
    32768
280
     0
281
     1
  0
CLASS
  1
HATCH
  2
AcDbHatch
  3
AutoCAD 2000
 90
    32768
280
     0
281
     1
  0
CLASS
  1
XRECORD
  2
AcDbXrecord
  3
AutoCAD 2000
 90
    32768
280
     0
281
     0
  0
ENDSEC
  0
SECTION
  2
TABLES
  0
TABLE
  2
VPORT
  5
8
330
0
100
AcDbSymbolTable
 70
     2
  0
VPORT
  5
623C
330
8
100
AcDbSymbolTableRecord
100
AcDbViewportTableRecord
  2
*ACTIVE
 70
     0
 10
0.0
 20
0.0
 11
1.0
 21
1.0
 12
8.703469726679985
 22
6.044045381115238
 13
0.0
 23
0.0
 14
0.005
 24
0.005
 15
0.25
 25
0.25
 16
0.0
 26
0.0
 36
1.0
 17
0.0
 27
0.0
 37
0.0
 40
11.25587694750192
 41
1.818713450292397
 42
50.0
 43
0.0
 44
0.0
 50
0.0
 51
0.0
 71
     0
 72
 20000
 73
     1
 74
     2
 75
     0
 76
     0
 77
     0
 78
     0
  0
ENDTAB
  0
TABLE
  2
LTYPE
  5
5
330
0
100
AcDbSymbolTable
 70
     5
  0
LTYPE
  5
12
330
5
100
AcDbSymbolTableRecord
100
AcDbLinetypeTableRecord
  2
BYBLOCK
 70
     0
  3

 72
    65
 73
     0
 40
0.0
  0
LTYPE
  5
13
330
5
100
AcDbSymbolTableRecord
100
AcDbLinetypeTableRecord
  2
BYLAYER
 70
     0
  3

 72
    65
 73
     0
 40
0.0
  0
LTYPE
  5
14
330
5
100
AcDbSymbolTableRecord
100
AcDbLinetypeTableRecord
  2
CONTINUOUS
 70
     0
  3
Solid line
 72
    65
 73
     0
 40
0.0
  0
LTYPE
  5
5DB3
330
5
100
AcDbSymbolTableRecord
100
AcDbLinetypeTableRecord
  2
CENTER
 70
     0
  3
Center ____ _ ____ _ ____ _ ____ _ ____ _ ____
 72
    65
 73
     4
 40
2.0
 49
1.25
 74
     0
 49
-0.25
 74
     0
 49
0.25
 74
     0
 49
-0.25
 74
     0
  0
LTYPE
  5
5DB4
330
5
100
AcDbSymbolTableRecord
100
AcDbLinetypeTableRecord
  2
HIDDEN
 70
     0
  3
Hidden __ __ __ __ __ __ __ __ __ __ __ __ __ _
 72
    65
 73
     2
 40
0.375
 49
0.25
 74
     0
 49
-0.125
 74
     0
  0
LTYPE
  5
6184
330
5
100
AcDbSymbolTableRecord
100
AcDbLinetypeTableRecord
  2
HIDDEN2
 70
     0
  3
Hidden (.5x) _ _ _ _ _ _ _ _ _ _ _ _ _ _ _ _ _
 72
    65
 73
     2
 40
0.1875
 49
0.125
 74
     0
 49
-0.0625
 74
     0
  0
LTYPE
  5
6185
330
5
100
AcDbSymbolTableRecord
100
AcDbLinetypeTableRecord
  2
CENTER2
 70
     0
  3
Center (.5x) ___ _ ___ _ ___ _ ___ _ ___ _ ___
 72
    65
 73
     4
 40
1.125
 49
0.75
 74
     0
 49
-0.125
 74
     0
 49
0.125
 74
     0
 49
-0.125
 74
     0
  0
ENDTAB
  0
TABLE
  2
LAYER
  5
2
330
0
100
AcDbSymbolTable
 70
     8
  0
LAYER
  5
F
330
2
100
AcDbSymbolTableRecord
100
AcDbLayerTableRecord
  2
0
 70
     0
 62
     7
  6
CONTINUOUS
  0
LAYER
  5
1E
330
2
100
AcDbSymbolTableRecord
100
AcDbLayerTableRecord
  2
BORDER
 70
     0
 62
     7
  6
CONTINUOUS
  0
LAYER
  5
20
330
2
100
AcDbSymbolTableRecord
100
AcDbLayerTableRecord
  2
D1
 70
     0
 62
     7
  6
CONTINUOUS
  0
LAYER
  5
13F
330
2
100
AcDbSymbolTableRecord
100
AcDbLayerTableRecord
  2
S2
 70
     0
 62
     7
  6
CONTINUOUS
  0
LAYER
  5
5944
330
2
100
AcDbSymbolTableRecord
100
AcDbLayerTableRecord
  2
S1
 70
     0
 62
     7
  6
CONTINUOUS
  0
LAYER
  5
5DAE
330
2
100
AcDbSymbolTableRecord
100
AcDbLayerTableRecord
  2
S3
 70
     0
 62
     7
  6
CONTINUOUS
  0
LAYER
  5
5EEC
330
2
100
AcDbSymbolTableRecord
100
AcDbLayerTableRecord
  2
BODY
 70
     0
 62
    -7
  6
CONTINUOUS
  0
LAYER
  5
6025
330
2
100
AcDbSymbolTableRecord
100
AcDbLayerTableRecord
  2
SILK-SCREEN
 70
     0
 62
     7
  6
CONTINUOUS
  0
ENDTAB
  0
TABLE
  2
STYLE
  5
3
330
0
100
AcDbSymbolTable
 70
     4
  0
STYLE
  5
10
330
3
100
AcDbSymbolTableRecord
100
AcDbTextStyleTableRecord
  2
STANDARD
 70
     0
 40
0.0
 41
1.0
 50
0.0
 71
     0
 42
0.08
  3
txt
  4

  0
STYLE
  5
5DB2
330
3
100
AcDbSymbolTableRecord
100
AcDbTextStyleTableRecord
  2

 70
     1
 40
0.0
 41
1.0
 50
0.0
 71
     0
 42
0.08
  3
ltypeshp.shx
  4

  0
STYLE
  5
5EED
330
3
100
AcDbSymbolTableRecord
100
AcDbTextStyleTableRecord
  2
ARIALBLACK
 70
     0
 40
0.06
 41
1.0
 50
0.0
 71
     0
 42
0.06
  3
ARIAL.TTF
  4

1001
ACAD
1000
Arial
1071
       34
  0
STYLE
  5
6026
330
3
100
AcDbSymbolTableRecord
100
AcDbTextStyleTableRecord
  2
BLOCK
 70
     0
 40
0.08
 41
1.0
 50
0.0
 71
     0
 42
0.1182148681910236
  3
ARIBLK.TTF
  4

1001
ACAD
1000
Arial Black
1071
       34
  0
ENDTAB
  0
TABLE
  2
VIEW
  5
6
330
0
100
AcDbSymbolTable
 70
     0
  0
ENDTAB
  0
TABLE
  2
UCS
  5
7
330
0
100
AcDbSymbolTable
 70
     0
  0
ENDTAB
  0
TABLE
  2
APPID
  5
9
330
0
100
AcDbSymbolTable
 70
     7
  0
APPID
  5
11
330
9
100
AcDbSymbolTableRecord
100
AcDbRegAppTableRecord
  2
ACAD
 70
     0
  0
APPID
  5
140
330
9
100
AcDbSymbolTableRecord
100
AcDbRegAppTableRecord
  2
AME_SOL
 70
     0
  0
APPID
  5
5904
330
9
100
AcDbSymbolTableRecord
100
AcDbRegAppTableRecord
  2
CONTENTTABDATA
 70
     0
  0
APPID
  5
5905
330
9
100
AcDbSymbolTableRecord
100
AcDbRegAppTableRecord
  2
CONTENTCURRENTTAB
 70
     0
  0
APPID
  5
5908
330
9
100
AcDbSymbolTableRecord
100
AcDbRegAppTableRecord
  2
CONTENTBLOCKDESCRIPTION
 70
     0
  0
APPID
  5
5922
330
9
100
AcDbSymbolTableRecord
100
AcDbRegAppTableRecord
  2
CONTENTLONGBLOCKNAME
 70
     0
  0
APPID
  5
5923
330
9
100
AcDbSymbolTableRecord
100
AcDbRegAppTableRecord
  2
CONTENTBLOCKICON
 70
     0
  0
ENDTAB
  0
TABLE
  2
DIMSTYLE
  5
A
330
0
100
AcDbSymbolTable
 70
     2
  0
DIMSTYLE
105
12F
330
A
100
AcDbSymbolTableRecord
100
AcDbDimStyleTableRecord
  2
STANDARD
 70
     0
  3

  4

  5

  6

  7

 40
1.0
 41
0.18
 42
0.04
 43
0.38
 44
0.04
 45
0.0
 46
0.0
 47
0.0
 48
0.0
140
0.1
141
0.09
142
0.0
143
25.4
144
1.0
145
0.0
146
1.0
147
0.09
 71
     0
 72
     0
 73
     1
 74
     1
 75
     0
 76
     0
 77
     0
 78
     0
170
     0
171
     2
172
     0
173
     0
174
     0
175
     0
176
     0
177
     0
178
     0
270
     2
271
     3
272
     3
273
     2
274
     2
340
10
275
     0
280
     0
281
     0
282
     0
283
     1
284
     0
285
     0
286
     0
287
     3
288
     1
  0
DIMSTYLE
105
5DE2
330
A
100
AcDbSymbolTableRecord
100
AcDbDimStyleTableRecord
  2
KEVIN
 70
     0
  3

  4

  5

  6

  7

 40
1.0
 41
0.18
 42
0.05
 43
0.38
 44
0.05
 45
0.0
 46
0.0
 47
0.0
 48
0.0
140
0.08
141
0.08
142
0.0
143
25.4
144
1.0
145
0.0
146
1.0
147
0.05
 71
     0
 72
     0
 73
     1
 74
     1
 75
     0
 76
     0
 77
     0
 78
     0
170
     0
171
     2
172
     0
173
     0
174
     0
175
     0
176
     0
177
     0
178
     0
270
     2
271
     3
272
     2
273
     2
274
     2
340
10
275
     0
280
     0
281
     0
282
     0
283
     1
284
     0
285
     0
286
     0
287
     3
288
     1
  0
ENDTAB
  0
TABLE
  2
BLOCK_RECORD
  5
1
330
0
100
AcDbSymbolTable
 70
     9
  0
BLOCK_RECORD
  5
18
102
{ACAD_XDICTIONARY
360
623F
102
}
330
1
100
AcDbSymbolTableRecord
100
AcDbBlockTableRecord
  2
*MODEL_SPACE
  0
BLOCK_RECORD
  5
15
102
{ACAD_XDICTIONARY
360
623D
102
}
330
1
100
AcDbSymbolTableRecord
100
AcDbBlockTableRecord
  2
*PAPER_SPACE
  0
BLOCK_RECORD
  5
139
330
1
100
AcDbSymbolTableRecord
100
AcDbBlockTableRecord
  2
AME_NIL
  0
BLOCK_RECORD
  5
13C
330
1
100
AcDbSymbolTableRecord
100
AcDbBlockTableRecord
  2
AME_SOL
  0
BLOCK_RECORD
  5
5FB9
330
1
100
AcDbSymbolTableRecord
100
AcDbBlockTableRecord
  2
LOGO
  0
BLOCK_RECORD
  5
601F
330
1
100
AcDbSymbolTableRecord
100
AcDbBlockTableRecord
  2
CE-MARK
  0
BLOCK_RECORD
  5
6176
330
1
100
AcDbSymbolTableRecord
100
AcDbBlockTableRecord
  2
ESD-INFO
  0
BLOCK_RECORD
  5
6180
330
1
100
AcDbSymbolTableRecord
100
AcDbBlockTableRecord
  2
COPYRIGHT00
  0
BLOCK_RECORD
  5
6186
330
1
100
AcDbSymbolTableRecord
100
AcDbBlockTableRecord
  2
COPYWRITE
  0
BLOCK_RECORD
  5
61CF
330
1
100
AcDbSymbolTableRecord
100
AcDbBlockTableRecord
  2
FDS010
1001
CONTENTBLOCKICON
1071
        0
1004
2800000020000000200000000100080000000000000400000000000000000000000000000000000000000000000080000080000000808000800000008000800080800000C0C0C000C0DCC000F0CAA6000020400000206000002080000020A0000020C0000020E00000400000004020000040400000406000004080000040A0
1004
000040C0000040E00000600000006020000060400000606000006080000060A0000060C0000060E00000800000008020000080400000806000008080000080A0000080C0000080E00000A0000000A0200000A0400000A0600000A0800000A0A00000A0C00000A0E00000C0000000C0200000C0400000C0600000C0800000C0
1004
A00000C0C00000C0E00000E0000000E0200000E0400000E0600000E0800000E0A00000E0C00000E0E00040000000400020004000400040006000400080004000A0004000C0004000E00040200000402020004020400040206000402080004020A0004020C0004020E000404000004040200040404000404060004040800040
1004
40A0004040C0004040E00040600000406020004060400040606000406080004060A0004060C0004060E00040800000408020004080400040806000408080004080A0004080C0004080E00040A0000040A0200040A0400040A0600040A0800040A0A00040A0C00040A0E00040C0000040C0200040C0400040C0600040C08000
1004
40C0A00040C0C00040C0E00040E0000040E0200040E0400040E0600040E0800040E0A00040E0C00040E0E00080000000800020008000400080006000800080008000A0008000C0008000E00080200000802020008020400080206000802080008020A0008020C0008020E00080400000804020008040400080406000804080
1004
008040A0008040C0008040E00080600000806020008060400080606000806080008060A0008060C0008060E00080800000808020008080400080806000808080008080A0008080C0008080E00080A0000080A0200080A0400080A0600080A0800080A0A00080A0C00080A0E00080C0000080C0200080C0400080C0600080C0
1004
800080C0A00080C0C00080C0E00080E0000080E0200080E0400080E0600080E0800080E0A00080E0C00080E0E000C0000000C0002000C0004000C0006000C0008000C000A000C000C000C000E000C0200000C0202000C0204000C0206000C0208000C020A000C020C000C020E000C0400000C0402000C0404000C0406000C0
1004
408000C040A000C040C000C040E000C0600000C0602000C0604000C0606000C0608000C060A000C060C000C060E000C0800000C0802000C0804000C0806000C0808000C080A000C080C000C080E000C0A00000C0A02000C0A04000C0A06000C0A08000C0A0A000C0A0C000C0A0E000C0C00000C0C02000C0C04000C0C06000
1004
C0C08000C0C0A000F0FBFF00A4A0A000808080000000FF0000FF000000FFFF00FF000000FF00FF00FFFF0000FFFFFF0000000000000000000000000000000000000000000000000000000000000000000000000000000000FFFFFFFFFF000000000000000000000000000000000000000000000000000000FF000000FF0000
1004
00000000000000000000000000000000000000000000000000FF000000FFFFFFFFFFFFFFFFFFFFFF0000000000000000000000000000000000FF000000FF00000000000000000000FF00000000000000000000000000000000FF000000FF00000000000000000000FF00000000000000000000000000000000FF000000FF00
1004
000000000000000000FF00000000000000000000000000000000FF000000FF00000000000000000000FF00000000000000000000000000000000FF000000FF00000000000000000000FF00000000000000000000000000000000FF000000FF00000000000000000000FF00000000000000000000000000000000FF000000FF
1004
00000000000000000000FF00000000000000000000000000000000FF000000FF00000000000000000000FF00000000000000000000000000000000FF000000FF00000000000000000000FF00000000000000000000000000000000FF000000FFFFFFFFFFFFFF00000000FF00000000000000000000000000000000FF000000
1004
FF000000FF00FF00000000FF00000000000000000000000000000000FF000000FF000000FF00FF00000000FF00000000000000000000000000000000FF000000FF000000FF00FF00000000FF00000000000000000000000000000000FF000000FF000000FF00FF00000000FF00000000000000000000000000000000FF0000
1004
00FFFFFFFFFFFFFF00000000FF00000000000000000000000000000000FF000000FF00000000000000000000FF00000000000000000000000000000000FF000000FF00000000000000000000FF00000000000000000000000000000000FF000000FF00000000000000000000FF00000000000000000000000000000000FF00
1004
0000FF00000000000000000000FF00000000000000000000000000000000FF000000FF00000000000000000000FF00000000000000000000000000000000FF000000FF00000000000000000000FF00000000000000000000000000000000FF000000FF00000000000000000000FF00000000000000000000000000000000FF
1004
000000FF00000000000000000000FF00000000000000000000000000000000FF000000FF00000000000000000000FF00000000000000000000000000000000FF000000FFFFFFFFFFFFFFFFFFFFFF0000000000000000000000000000000000FF000000FF000000000000000000000000000000000000000000000000000000
1004
FFFFFFFFFF000000000000000000000000000000000000000000000000000000000000000000000000000000000000000000000000000000
  0
BLOCK_RECORD
  5
6341
330
1
100
AcDbSymbolTableRecord
100
AcDbBlockTableRecord
  2
*X8
  0
ENDTAB
  0
ENDSEC
  0
SECTION
  2
BLOCKS
  0
BLOCK
  5
28
330
18
100
AcDbEntity
  8
0
100
AcDbBlockBegin
  2
*MODEL_SPACE
 70
     0
 10
0.0
 20
0.0
 30
0.0
  3
*MODEL_SPACE
  1

  0
ENDBLK
  5
29
330
18
100
AcDbEntity
  8
0
100
AcDbBlockEnd
  0
BLOCK
  5
26
330
15
100
AcDbEntity
 67
     1
  8
0
100
AcDbBlockBegin
  2
*PAPER_SPACE
 70
     0
 10
0.0
 20
0.0
 30
0.0
  3
*PAPER_SPACE
  1

  0
ENDBLK
  5
27
330
15
100
AcDbEntity
 67
     1
  8
0
100
AcDbBlockEnd
  0
BLOCK
  5
13A
330
139
100
AcDbEntity
  8
0
100
AcDbBlockBegin
  2
AME_NIL
 70
     0
 10
0.0
 20
0.0
 30
0.0
  3
AME_NIL
  1
AME_NIL
  0
ENDBLK
  5
13B
330
139
100
AcDbEntity
  8
0
100
AcDbBlockEnd
  0
BLOCK
  5
13D
330
13C
100
AcDbEntity
  8
0
100
AcDbBlockBegin
  2
AME_SOL
 70
     0
 10
0.0
 20
0.0
 30
0.0
  3
AME_SOL
  1
AME_SOL
  0
ENDBLK
  5
13E
330
13C
100
AcDbEntity
  8
0
100
AcDbBlockEnd
  0
BLOCK
  5
601D
330
5FB9
100
AcDbEntity
  8
0
100
AcDbBlockBegin
  2
LOGO
 70
     0
 10
0.0
 20
0.0
 30
0.0
  3
LOGO
  1

  0
SOLID
  5
5FBA
330
5FB9
100
AcDbEntity
  8
0
100
AcDbTrace
 10
0.3969004331716075
 20
0.1688693648503277
 30
0.34938
 11
0.2836248862966055
 21
0.1688693648503277
 31
0.34938
 12
0.3969004331716075
 22
0.1224673336003286
 32
0.34938
 13
0.2836248862966055
 23
0.1224673336003286
 33
0.34938
  0
SOLID
  5
5FBB
330
5FB9
100
AcDbEntity
  8
0
100
AcDbTrace
 10
-0.0002463637033898
 20
0.2753210836003279
 30
0.34938
 11
0.2290342612966079
 21
0.2753210836003279
 31
0.34938
 12
-0.0002463637033898
 22
0.230283817975327
 32
0.34938
 13
0.2290342612966079
 23
0.230283817975327
 33
0.34938
  0
SOLID
  5
5FBC
330
5FB9
100
AcDbEntity
  8
0
100
AcDbTrace
 10
0.2290342612966079
 20
0.2753210836003279
 30
0.34938
 11
0.2836248862966055
 21
0.2753210836003279
 31
0.34938
 12
0.2290342612966079
 22
0.0023679586003289
 32
0.34938
 13
0.2836248862966055
 23
0.0023679586003289
 33
0.34938
  0
SOLID
  5
5FBD
330
5FB9
100
AcDbEntity
  8
0
100
AcDbTrace
 10
0.0870986362966075
 20
0.0023679586003289
 30
0.34938
 11
0.1416892612966087
 21
0.0023679586003289
 31
0.34938
 12
0.0870986362966075
 22
0.230283817975327
 32
0.34938
 13
0.1416892612966087
 23
0.230283817975327
 33
0.34938
  0
POLYLINE
  5
5FBE
330
5FB9
100
AcDbEntity
  8
0
100
AcDb2dPolyline
 66
     1
 10
0.0
 20
0.0
 30
0.34938
  0
VERTEX
  5
62D3
330
5FBE
100
AcDbEntity
  8
0
100
AcDbVertex
100
AcDb2dVertex
 10
1.654340931787693
 20
0.1736217909448361
 30
0.34938
 42
0.0019568917075044
  0
VERTEX
  5
62D4
330
5FBE
100
AcDbEntity
  8
0
100
AcDbVertex
100
AcDb2dVertex
 10
1.732505417843981
 20
0.15769740909175
 30
0.34938
 42
-0.2136964031287707
  0
VERTEX
  5
62D5
330
5FBE
100
AcDbEntity
  8
0
100
AcDbVertex
100
AcDb2dVertex
 10
1.785666864155011
 20
0.1205405459365116
 30
0.34938
 42
-0.2075585583027768
  0
VERTEX
  5
62D6
330
5FBE
100
AcDbEntity
  8
0
100
AcDbVertex
100
AcDb2dVertex
 10
1.793018378476226
 20
0.0644901002966312
 30
0.34938
 42
-0.2311984101377718
  0
VERTEX
  5
62D7
330
5FBE
100
AcDbEntity
  8
0
100
AcDbVertex
100
AcDb2dVertex
 10
1.741309333877943
 20
0.0070920166123982
 30
0.34938
 42
-0.176335766587305
  0
VERTEX
  5
62D8
330
5FBE
100
AcDbEntity
  8
0
100
AcDbVertex
100
AcDb2dVertex
 10
1.633376352180563
 20
0.0034211734554099
 30
0.34938
 42
-0.2115906095274752
  0
VERTEX
  5
62D9
330
5FBE
100
AcDbEntity
  8
0
100
AcDbVertex
100
AcDb2dVertex
 10
1.575984146587131
 20
0.0550015678018636
 30
0.34938
  0
SEQEND
  5
62DA
330
5FBE
100
AcDbEntity
  8
0
  0
POLYLINE
  5
5FBF
330
5FB9
100
AcDbEntity
  8
0
100
AcDb2dPolyline
 66
     1
 10
0.0
 20
0.0
 30
0.34938
  0
VERTEX
  5
62DB
330
5FBF
100
AcDbEntity
  8
0
100
AcDbVertex
100
AcDb2dVertex
 10
1.579299586241436
 20
0.0843972144389809
 30
0.34938
  0
VERTEX
  5
62DC
330
5FBF
100
AcDbEntity
  8
0
100
AcDbVertex
100
AcDb2dVertex
 10
1.623066106608236
 20
0.0843972144389809
 30
0.34938
 42
0.3020440864755188
  0
VERTEX
  5
62DD
330
5FBF
100
AcDbEntity
  8
0
100
AcDbVertex
100
AcDb2dVertex
 10
1.651055533458096
 20
0.0431613087516074
 30
0.34938
 42
0.2653699712401423
  0
VERTEX
  5
62DE
330
5FBF
100
AcDbEntity
  8
0
100
AcDbVertex
100
AcDb2dVertex
 10
1.726099380940761
 20
0.0530470873913376
 30
0.34938
 42
0.6356064402471244
  0
VERTEX
  5
62DF
330
5FBF
100
AcDbEntity
  8
0
100
AcDbVertex
100
AcDb2dVertex
 10
1.713986896784216
 20
0.1095024358177428
 30
0.34938
 42
-0.0009437836138568
  0
VERTEX
  5
62E0
330
5FBF
100
AcDbEntity
  8
0
100
AcDbVertex
100
AcDb2dVertex
 10
1.624514479759591
 20
0.1303534814925382
 30
0.34938
 42
-0.3442454331168749
  0
VERTEX
  5
62E1
330
5FBF
100
AcDbEntity
  8
0
100
AcDbVertex
100
AcDb2dVertex
 10
1.571718396019566
 20
0.1960609485431015
 30
0.34938
 42
-0.322222187521162
  0
VERTEX
  5
62E2
330
5FBF
100
AcDbEntity
  8
0
100
AcDbVertex
100
AcDb2dVertex
 10
1.625865042901512
 20
0.2735923310109434
 30
0.34938
 42
-0.1417364340760132
  0
VERTEX
  5
62E3
330
5FBF
100
AcDbEntity
  8
0
100
AcDbVertex
100
AcDb2dVertex
 10
1.718418728741468
 20
0.2787922754761527
 30
0.34938
 42
-0.3337744805077131
  0
VERTEX
  5
62E4
330
5FBF
100
AcDbEntity
  8
0
100
AcDbVertex
100
AcDb2dVertex
 10
1.784828828119628
 20
0.2001117393778391
 30
0.34938
  0
VERTEX
  5
62E5
330
5FBF
100
AcDbEntity
  8
0
100
AcDbVertex
100
AcDb2dVertex
 10
1.730855726628863
 20
0.2001117393778404
 30
0.34938
 42
0.3019792396306431
  0
VERTEX
  5
62E6
330
5FBF
100
AcDbEntity
  8
0
100
AcDbVertex
100
AcDb2dVertex
 10
1.705071514001385
 20
0.2359443165838013
 30
0.34938
 42
0.1972875622237244
  0
VERTEX
  5
62E7
330
5FBF
100
AcDbEntity
  8
0
100
AcDbVertex
100
AcDb2dVertex
 10
1.64783350196787
 20
0.2342804008325925
 30
0.34938
 42
0.728374493267646
  0
VERTEX
  5
62E8
330
5FBF
100
AcDbEntity
  8
0
100
AcDbVertex
100
AcDb2dVertex
 10
1.654340931787693
 20
0.1736217909448361
 30
0.34938
 42
0.0019568917075044
  0
SEQEND
  5
62E9
330
5FBF
100
AcDbEntity
  8
0
  0
LINE
  5
5FC0
330
5FB9
100
AcDbEntity
  8
0
100
AcDbLine
 10
0.9905734800466134
 20
0.2753210836003279
 30
0.34938
 11
0.9332533237966114
 21
0.2753210836003279
 31
0.34938
  0
LINE
  5
5FC1
330
5FB9
100
AcDbEntity
  8
0
100
AcDbLine
 10
0.9332533237966114
 20
0.0023679586003289
 30
0.34938
 11
1.127050042546613
 21
0.0023679586003289
 31
0.34938
  0
SOLID
  5
5FC2
330
5FB9
100
AcDbEntity
  8
0
100
AcDbTrace
 10
0.5813078509755876
 20
0.0012218950025402
 30
0.34938
 11
0.5813078509755876
 21
0.0357101042564403
 31
0.34938
 12
0.6525360424111142
 22
0.0257468438053139
 32
0.34938
 13
0.6333886791219925
 23
0.0518046019082594
 33
0.34938
  0
POLYLINE
  5
5FC3
330
5FB9
100
AcDbEntity
  8
0
100
AcDb2dPolyline
 66
     1
 10
0.0
 20
0.0
 30
0.34938
 40
0.010918125
 41
0.010918125
  0
VERTEX
  5
62EA
330
5FC3
100
AcDbEntity
  8
0
100
AcDbVertex
100
AcDb2dVertex
 10
0.4630093563372686
 20
0.0925980808906943
 30
0.34938
 42
0.7616390336395551
  0
VERTEX
  5
62EB
330
5FC3
100
AcDbEntity
  8
0
100
AcDbVertex
100
AcDb2dVertex
 10
0.7003338419637988
 20
0.0950970736731694
 30
0.34938
 42
0.7616390336395551
  0
SEQEND
  5
62EC
330
5FC3
100
AcDbEntity
  8
0
  0
POLYLINE
  5
5FC4
330
5FB9
100
AcDbEntity
  8
0
100
AcDb2dPolyline
 66
     1
 10
0.0
 20
0.0
 30
0.34938
 40
0.010918125
 41
0.010918125
  0
VERTEX
  5
62ED
330
5FC4
100
AcDbEntity
  8
0
100
AcDbVertex
100
AcDb2dVertex
 10
0.6983012465547152
 20
0.1913916908167814
 30
0.34938
 42
0.7414713431190223
  0
VERTEX
  5
62EE
330
5FC4
100
AcDbEntity
  8
0
100
AcDbVertex
100
AcDb2dVertex
 10
0.4634643884302854
 20
0.1900051802242113
 30
0.34938
 42
0.7414713431190223
  0
SEQEND
  5
62EF
330
5FC4
100
AcDbEntity
  8
0
  0
POLYLINE
  5
5FC5
330
5FB9
100
AcDbEntity
  8
0
100
AcDb2dPolyline
 66
     1
 10
0.0
 20
0.0
 30
0.34938
 70
     1
 40
0.010918125
 41
0.010918125
  0
VERTEX
  5
62F0
330
5FC5
100
AcDbEntity
  8
0
100
AcDbVertex
100
AcDb2dVertex
 10
0.5140436829122237
 20
0.1997992443440588
 30
0.34938
 42
0.2285268323977459
  0
VERTEX
  5
62F1
330
5FC5
100
AcDbEntity
  8
0
100
AcDbVertex
100
AcDb2dVertex
 10
0.5153187380010032
 20
0.0758670897235656
 30
0.34938
 42
0.6230043105321781
  0
VERTEX
  5
62F2
330
5FC5
100
AcDbEntity
  8
0
100
AcDbVertex
100
AcDb2dVertex
 10
0.646630091729346
 20
0.0762813869185668
 30
0.34938
 42
0.2290062495557326
  0
VERTEX
  5
62F3
330
5FC5
100
AcDbEntity
  8
0
100
AcDbVertex
100
AcDb2dVertex
 10
0.6470105418576893
 20
0.2003399191313444
 30
0.34938
 42
0.6323121992740218
  0
SEQEND
  5
62F4
330
5FC5
100
AcDbEntity
  8
0
  0
SOLID
  5
5FC6
330
5FB9
100
AcDbEntity
  8
0
100
AcDbTrace
 10
0.6847036127368398
 20
0.2273112667781008
 30
0.34938
 11
0.6441112025638987
 21
0.2081511505259352
 31
0.34938
 12
0.6303251009957336
 22
0.2702299271829527
 32
0.34938
 13
0.6165389994275686
 23
0.2311432900285344
 33
0.34938
  0
SOLID
  5
5FC7
330
5FB9
100
AcDbEntity
  8
0
100
AcDbTrace
 10
0.6525360424111142
 20
0.0257468438053139
 30
0.34938
 11
0.6333886791219925
 21
0.0518046019082594
 31
0.34938
 12
0.6908307689893541
 22
0.0686655042101658
 32
0.34938
 13
0.658663198663632
 23
0.1023873088139786
 33
0.34938
  0
SOLID
  5
5FC8
330
5FB9
100
AcDbEntity
  8
0
100
AcDbTrace
 10
0.6303251009957336
 20
0.2702299271829527
 30
0.34938
 11
0.6165389994275686
 21
0.2311432900285344
 31
0.34938
 12
0.58030244033597
 22
0.2808592629481539
 32
0.34938
 13
0.5791494209320867
 23
0.2416304925677202
 33
0.34938
  0
SOLID
  5
5FC9
330
5FB9
100
AcDbEntity
  8
0
100
AcDbTrace
 10
0.4707655969670839
 20
0.213939595828589
 30
0.34938
 11
0.5099682566991071
 21
0.1862486990894579
 31
0.34938
 12
0.4549352532673972
 22
0.1384083273680505
 32
0.34938
 13
0.4993571360981548
 23
0.1345763041176169
 33
0.34938
  0
SOLID
  5
5FCA
330
5FB9
100
AcDbEntity
  8
0
100
AcDbTrace
 10
0.5076622178913404
 20
0.2554759409372838
 30
0.34938
 11
0.5284165671612336
 21
0.2243236821057644
 31
0.34938
 12
0.4707655969670839
 22
0.213939595828589
 32
0.34938
 13
0.5099682566991071
 23
0.1862486990894579
 33
0.34938
  0
SOLID
  5
5FCB
330
5FB9
100
AcDbEntity
  8
0
100
AcDbTrace
 10
0.4748485110880801
 20
0.0602350530592126
 30
0.34938
 11
0.5139091321978846
 21
0.0747967414108586
 31
0.34938
 12
0.5322906009554416
 22
0.0104187508035807
 32
0.34938
 13
0.5522038587761245
 23
0.0387757228567867
 33
0.34938
  0
SOLID
  5
5FCC
330
5FB9
100
AcDbEntity
  8
0
100
AcDbTrace
 10
0.3969004331716075
 20
0.2753210836003279
 30
0.34938
 11
0.4514910581716052
 21
0.2753210836003279
 31
0.34938
 12
0.3969004331716075
 22
0.0023679586003289
 32
0.34938
 13
0.4514910581716052
 23
0.0023679586003289
 33
0.34938
  0
SOLID
  5
5FCD
330
5FB9
100
AcDbEntity
  8
0
100
AcDbTrace
 10
0.4549352532673972
 20
0.1384083273680505
 30
0.34938
 11
0.4993571360981548
 21
0.1345763041176169
 31
0.34938
 12
0.4748485110880801
 22
0.0602350530592126
 32
0.34938
 13
0.5139091321978846
 23
0.0747967414108586
 33
0.34938
  0
POLYLINE
  5
5FCE
330
5FB9
100
AcDbEntity
  8
0
100
AcDb2dPolyline
 66
     1
 10
0.0
 20
0.0
 30
0.34938
 40
0.010918125
 41
0.010918125
  0
VERTEX
  5
62F5
330
5FCE
100
AcDbEntity
  8
0
100
AcDbVertex
100
AcDb2dVertex
 10
0.4634643884302854
 20
0.1900051802242113
 30
0.34938
 42
0.1430540650207981
  0
VERTEX
  5
62F6
330
5FCE
100
AcDbEntity
  8
0
100
AcDbVertex
100
AcDb2dVertex
 10
0.4630093563372686
 20
0.0925980808906943
 30
0.34938
 42
0.1430540650207981
  0
SEQEND
  5
62F7
330
5FCE
100
AcDbEntity
  8
0
  0
SOLID
  5
5FCF
330
5FB9
100
AcDbEntity
  8
0
100
AcDbTrace
 10
0.5322906009554416
 20
0.0104187508035807
 30
0.34938
 11
0.5522038587761245
 21
0.0387757228567867
 31
0.34938
 12
0.5813078509755876
 22
0.0012218950025402
 32
0.34938
 13
0.5813078509755876
 23
0.0357101042564403
 33
0.34938
  0
SOLID
  5
5FD0
330
5FB9
100
AcDbEntity
  8
0
100
AcDbTrace
 10
0.58030244033597
 20
0.2808592629481539
 30
0.34938
 11
0.5791494209320867
 21
0.2416304925677202
 31
0.34938
 12
0.5076622178913404
 22
0.2554759409372838
 32
0.34938
 13
0.5284165671612336
 23
0.2243236821057644
 33
0.34938
  0
SOLID
  5
5FD1
330
5FB9
100
AcDbEntity
  8
0
100
AcDbTrace
 10
0.8760742265482655
 20
0.0099578020131754
 30
0.34938
 11
0.9267049776546052
 21
0.0152794808020995
 31
0.34938
 12
0.8741249142547822
 22
0.016303343840614
 32
0.34938
 13
0.9277587226431727
 23
0.0204545410061345
 33
0.34938
  0
SOLID
  5
5FD2
330
5FB9
100
AcDbEntity
  8
0
100
AcDbTrace
 10
0.8786524030512232
 20
0.0023679586003289
 30
0.34938
 11
0.934927625990845
 21
0.0023679586003289
 31
0.34938
 12
0.8760742265482655
 22
0.0099578020131754
 32
0.34938
 13
0.9267049776546052
 23
0.0152794808020995
 33
0.34938
  0
SOLID
  5
5FD3
330
5FB9
100
AcDbEntity
  8
0
100
AcDbTrace
 10
0.878498730795
 20
0.216932532206652
 30
0.34938
 11
0.920882769084919
 21
0.2389869115003775
 31
0.34938
 12
0.859849753947433
 22
0.2367249238805074
 32
0.34938
 13
0.8790638513055313
 23
0.2678272536537096
 33
0.34938
  0
SOLID
  5
5FD4
330
5FB9
100
AcDbEntity
  8
0
100
AcDbTrace
 10
0.8841499359003215
 20
0.1943126560079596
 30
0.34938
 11
0.9265339741902423
 21
0.1807407302887438
 31
0.34938
 12
0.878498730795
 22
0.216932532206652
 32
0.34938
 13
0.920882769084919
 23
0.2389869115003775
 33
0.34938
  0
SOLID
  5
5FD5
330
5FB9
100
AcDbEntity
  8
0
100
AcDbTrace
 10
0.8651255293429596
 20
0.1516364236710292
 30
0.34938
 11
0.8859855895866282
 21
0.1419112609889264
 31
0.34938
 12
0.8841499359003215
 22
0.1943126560079596
 32
0.34938
 13
0.9265339741902423
 23
0.1807407302887438
 33
0.34938
  0
SOLID
  5
5FD6
330
5FB9
100
AcDbEntity
  8
0
100
AcDbTrace
 10
0.8710059815654496
 20
0.0817752041156479
 30
0.34938
 11
0.915288610845014
 21
0.0972844473074015
 31
0.34938
 12
0.8584592366029042
 22
0.0987615180875685
 32
0.34938
 13
0.8879809894559471
 23
0.1194405090099053
 33
0.34938
  0
SOLID
  5
5FD7
330
5FB9
100
AcDbEntity
  8
0
100
AcDbTrace
 10
0.8699117224827173
 20
0.0654814455511095
 30
0.34938
 11
0.9217755527314395
 21
0.0811785461046175
 31
0.34938
 12
0.8710059815654496
 22
0.0817752041156479
 32
0.34938
 13
0.915288610845014
 23
0.0972844473074015
 33
0.34938
  0
SOLID
  5
5FD8
330
5FB9
100
AcDbEntity
  8
0
100
AcDbTrace
 10
0.8699117224827173
 20
0.0654814455511095
 30
0.34938
 11
0.8741249142547822
 21
0.016303343840614
 31
0.34938
 12
0.9217755527314395
 22
0.0811785461046175
 32
0.34938
 13
0.9277587226431727
 23
0.0204545410061345
 33
0.34938
  0
POLYLINE
  5
5FD9
330
5FB9
100
AcDbEntity
  8
0
100
AcDb2dPolyline
 66
     1
 10
0.0
 20
0.0
 30
0.34938
 40
0.010918125
 41
0.010918125
  0
VERTEX
  5
62F8
330
5FD9
100
AcDbEntity
  8
0
100
AcDbVertex
100
AcDb2dVertex
 10
0.9163427978614429
 20
0.0806432537532116
 30
0.34938
 42
0.3581345567762107
  0
VERTEX
  5
62F9
330
5FD9
100
AcDbEntity
  8
0
100
AcDbVertex
100
AcDb2dVertex
 10
0.8698970913896921
 20
0.1270312415146706
 30
0.34938
 42
0.3581345567762107
  0
SEQEND
  5
62FA
330
5FD9
100
AcDbEntity
  8
0
  0
POLYLINE
  5
5FDA
330
5FB9
100
AcDbEntity
  8
0
100
AcDb2dPolyline
 66
     1
 10
0.0
 20
0.0
 30
0.34938
 40
0.010918125
 41
0.010918125
  0
VERTEX
  5
62FB
330
5FDA
100
AcDbEntity
  8
0
100
AcDbVertex
100
AcDb2dVertex
 10
0.8697514590815629
 20
0.137881932030862
 30
0.34938
 42
0.9399343180161681
  0
VERTEX
  5
62FC
330
5FDA
100
AcDbEntity
  8
0
100
AcDbVertex
100
AcDb2dVertex
 10
0.8615706858690082
 20
0.2698620211003271
 30
0.34938
 42
0.9399343180161681
  0
SEQEND
  5
62FD
330
5FDA
100
AcDbEntity
  8
0
  0
SOLID
  5
5FDB
330
5FB9
100
AcDbEntity
  8
0
100
AcDbTrace
 10
0.8651255293429596
 20
0.1516364236710292
 30
0.34938
 11
0.8859855895866282
 21
0.1419112609889264
 31
0.34938
 12
0.8364237107255156
 22
0.1526009719217236
 32
0.34938
 13
0.8704256277739794
 23
0.1324646578128559
 33
0.34938
  0
SOLID
  5
5FDC
330
5FB9
100
AcDbEntity
  8
0
100
AcDbTrace
 10
0.859849753947433
 20
0.2367249238805074
 30
0.34938
 11
0.8790638513055313
 21
0.2678272536537096
 31
0.34938
 12
0.8364237107255156
 22
0.2337091722048226
 32
0.34938
 13
0.8615706858690082
 23
0.2753210836003279
 33
0.34938
  0
SOLID
  5
5FDD
330
5FB9
100
AcDbEntity
  8
0
100
AcDbTrace
 10
0.843647945507735
 20
0.1135024546871084
 30
0.34938
 11
0.8704256277739794
 21
0.1324646578128559
 31
0.34938
 12
0.8198314885494308
 22
0.1114546513469983
 32
0.34938
 13
0.8364237107255156
 23
0.1526009719217236
 33
0.34938
  0
SOLID
  5
5FDE
330
5FB9
100
AcDbEntity
  8
0
100
AcDbTrace
 10
0.8584592366029042
 20
0.0987615180875685
 30
0.34938
 11
0.8879809894559471
 21
0.1194405090099053
 31
0.34938
 12
0.843647945507735
 22
0.1135024546871084
 32
0.34938
 13
0.8704256277739794
 23
0.1324646578128559
 33
0.34938
  0
SOLID
  5
5FDF
330
5FB9
100
AcDbEntity
  8
0
100
AcDbTrace
 10
0.7666672735097926
 20
0.1526009719217236
 30
0.34938
 11
0.7666672735097926
 21
0.1114546513469983
 31
0.34938
 12
0.8364237107255156
 22
0.1526009719217236
 32
0.34938
 13
0.8198314885494308
 23
0.1114546513469983
 33
0.34938
  0
SOLID
  5
5FE0
330
5FB9
100
AcDbEntity
  8
0
100
AcDbTrace
 10
0.7666672735097926
 20
0.2337091722048226
 30
0.34938
 11
0.7666672735097926
 21
0.2693740661060553
 31
0.34938
 12
0.8364237107255156
 22
0.2337091722048226
 32
0.34938
 13
0.8615706858690082
 23
0.2753210836003279
 33
0.34938
  0
POLYLINE
  5
5FE1
330
5FB9
100
AcDbEntity
  8
0
100
AcDb2dPolyline
 66
     1
 10
0.0
 20
0.0
 30
0.34938
 40
0.010918125
 41
0.010918125
  0
VERTEX
  5
62FE
330
5FE1
100
AcDbEntity
  8
0
100
AcDbVertex
100
AcDb2dVertex
 10
0.8364237107255156
 20
0.1471419094217228
 30
0.34938
 42
1.0
  0
VERTEX
  5
62FF
330
5FE1
100
AcDbEntity
  8
0
100
AcDbVertex
100
AcDb2dVertex
 10
0.8364237107255156
 20
0.2391682347048234
 30
0.34938
 42
1.0
  0
SEQEND
  5
6300
330
5FE1
100
AcDbEntity
  8
0
  0
SOLID
  5
5FE2
330
5FB9
100
AcDbEntity
  8
0
100
AcDbTrace
 10
0.7076804486837816
 20
0.1499043971193488
 30
0.34938
 11
0.6601949877267615
 21
0.1545028250198697
 31
0.34938
 12
0.6847036127368398
 22
0.2273112667781008
 32
0.34938
 13
0.6441112025638987
 23
0.2081511505259352
 33
0.34938
  0
POLYLINE
  5
5FE3
330
5FB9
100
AcDbEntity
  8
0
100
AcDb2dPolyline
 66
     1
 10
0.0
 20
0.0
 30
0.34938
 40
0.010918125
 41
0.010918125
  0
VERTEX
  5
6301
330
5FE3
100
AcDbEntity
  8
0
100
AcDbVertex
100
AcDb2dVertex
 10
0.8615706858690082
 20
0.2698620211003271
 30
0.34938
  0
VERTEX
  5
6302
330
5FE3
100
AcDbEntity
  8
0
100
AcDbVertex
100
AcDb2dVertex
 10
0.7109070694803368
 20
0.2698620211003271
 30
0.34938
  0
SEQEND
  5
6303
330
5FE3
100
AcDbEntity
  8
0
  0
POLYLINE
  5
5FE4
330
5FB9
100
AcDbEntity
  8
0
100
AcDb2dPolyline
 66
     1
 10
0.0
 20
0.0
 30
0.34938
 40
0.010918125
 41
0.010918125
  0
VERTEX
  5
6304
330
5FE4
100
AcDbEntity
  8
0
100
AcDbVertex
100
AcDb2dVertex
 10
0.8795640523979031
 20
0.0167693262855377
 30
0.34938
 42
0.1148360225250129
  0
VERTEX
  5
6305
330
5FE4
100
AcDbEntity
  8
0
100
AcDbVertex
100
AcDb2dVertex
 10
0.8833267994785245
 20
0.0051877779951419
 30
0.34938
 42
0.1148360225250129
  0
SEQEND
  5
6306
330
5FE4
100
AcDbEntity
  8
0
  0
SOLID
  5
5FE5
330
5FB9
100
AcDbEntity
  8
0
100
AcDbTrace
 10
0.6908307689893541
 20
0.0686655042101658
 30
0.34938
 11
0.658663198663632
 21
0.1023873088139786
 31
0.34938
 12
0.7076804486837816
 22
0.1499043971193488
 32
0.34938
 13
0.6601949877267615
 23
0.1545028250198697
 33
0.34938
  0
POLYLINE
  5
5FE6
330
5FB9
100
AcDbEntity
  8
0
100
AcDb2dPolyline
 66
     1
 10
0.0
 20
0.0
 30
0.34938
 40
0.010918125
 41
0.010918125
  0
VERTEX
  5
6307
330
5FE6
100
AcDbEntity
  8
0
100
AcDbVertex
100
AcDb2dVertex
 10
0.7003338419637988
 20
0.0950970736731694
 30
0.34938
 42
0.1406948172011772
  0
VERTEX
  5
6308
330
5FE6
100
AcDbEntity
  8
0
100
AcDbVertex
100
AcDb2dVertex
 10
0.6983012465547152
 20
0.1913916908167814
 30
0.34938
 42
0.1406948172011772
  0
SEQEND
  5
6309
330
5FE6
100
AcDbEntity
  8
0
  0
POLYLINE
  5
5FE7
330
5FB9
100
AcDbEntity
  8
0
100
AcDb2dPolyline
 66
     1
 10
0.0
 20
0.0
 30
0.34938
 40
0.010918125
 41
0.010918125
  0
VERTEX
  5
630A
330
5FE7
100
AcDbEntity
  8
0
100
AcDbVertex
100
AcDb2dVertex
 10
0.8753508606258328
 20
0.0659474279960306
 30
0.34938
 42
0.3893977487990803
  0
VERTEX
  5
630B
330
5FE7
100
AcDbEntity
  8
0
100
AcDbVertex
100
AcDb2dVertex
 10
0.8198314885494308
 20
0.1169137138469991
 30
0.34938
 42
0.3893977487990803
  0
SEQEND
  5
630C
330
5FE7
100
AcDbEntity
  8
0
  0
SOLID
  5
5FE8
330
5FB9
100
AcDbEntity
  8
0
100
AcDbTrace
 10
0.7109070694803368
 20
0.0023679586003289
 30
0.34938
 11
0.7109070694803368
 21
0.2753210836003279
 31
0.34938
 12
0.7666672735097926
 22
0.0023679586003289
 32
0.34938
 13
0.7666672735097926
 23
0.2693740661060553
 33
0.34938
  0
POLYLINE
  5
5FE9
330
5FB9
100
AcDbEntity
  8
0
100
AcDb2dPolyline
 66
     1
 10
0.0
 20
0.0
 30
0.34938
 40
0.010918125
 41
0.010918125
  0
VERTEX
  5
630D
330
5FE9
100
AcDbEntity
  8
0
100
AcDbVertex
100
AcDb2dVertex
 10
0.9223259677731796
 20
0.0199192486547273
 30
0.34938
 42
0.0950669764493849
  0
VERTEX
  5
630E
330
5FE9
100
AcDbEntity
  8
0
100
AcDbVertex
100
AcDb2dVertex
 10
0.9266860344800491
 20
0.0051890093990461
 30
0.34938
 42
0.1404915454274296
  0
SEQEND
  5
630F
330
5FE9
100
AcDbEntity
  8
0
  0
LINE
  5
5FEA
330
5FB9
100
AcDbEntity
  8
0
100
AcDbLine
 10
0.9332533237966114
 20
0.2753210836003279
 30
0.34938
 11
0.9332533237966114
 21
0.0023679586003289
 31
0.34938
  0
POLYLINE
  5
5FEB
330
5FB9
100
AcDbEntity
  8
0
100
AcDb2dPolyline
 66
     1
 10
0.0
 20
0.0
 30
0.34938
  0
VERTEX
  5
6310
330
5FEB
100
AcDbEntity
  8
0
100
AcDbVertex
100
AcDb2dVertex
 10
1.124416044890361
 20
0.048769989850328
 30
0.34938
  0
VERTEX
  5
6311
330
5FEB
100
AcDbEntity
  8
0
100
AcDbVertex
100
AcDb2dVertex
 10
1.204841683171611
 20
0.2753210836003279
 30
0.34938
  0
VERTEX
  5
6312
330
5FEB
100
AcDbEntity
  8
0
100
AcDbVertex
100
AcDb2dVertex
 10
1.266256136296608
 20
0.2753210836003279
 30
0.34938
  0
VERTEX
  5
6313
330
5FEB
100
AcDbEntity
  8
0
100
AcDbVertex
100
AcDb2dVertex
 10
1.356301317748224
 20
0.0216726851450777
 30
0.34938
  0
SEQEND
  5
6314
330
5FEB
100
AcDbEntity
  8
0
  0
POLYLINE
  5
5FEC
330
5FB9
100
AcDbEntity
  8
0
100
AcDb2dPolyline
 66
     1
 10
0.0
 20
0.0
 30
0.34938
  0
VERTEX
  5
6315
330
5FEC
100
AcDbEntity
  8
0
100
AcDbVertex
100
AcDb2dVertex
 10
1.287755678182184
 20
0.0610528804753279
 30
0.34938
  0
VERTEX
  5
6316
330
5FEC
100
AcDbEntity
  8
0
100
AcDbVertex
100
AcDb2dVertex
 10
1.183342141286034
 20
0.0610528804753279
 30
0.34938
  0
VERTEX
  5
6317
330
5FEC
100
AcDbEntity
  8
0
100
AcDbVertex
100
AcDb2dVertex
 10
1.165263480046611
 20
0.0023679586003289
 30
0.34938
  0
VERTEX
  5
6318
330
5FEC
100
AcDbEntity
  8
0
100
AcDbVertex
100
AcDb2dVertex
 10
1.107943323796611
 20
0.0023679586003289
 30
0.34938
  0
SEQEND
  5
6319
330
5FEC
100
AcDbEntity
  8
0
  0
LINE
  5
5FED
330
5FB9
100
AcDbEntity
  8
0
100
AcDbLine
 10
1.195955160755403
 20
0.1019958492253274
 30
0.34938
 11
1.27514265871282
 21
0.1019958492253274
 31
0.34938
  0
LINE
  5
5FEE
330
5FB9
100
AcDbEntity
  8
0
100
AcDbLine
 10
1.27514265871282
 20
0.1019958492253274
 30
0.34938
 11
1.235548909734113
 21
0.2305206351473488
 31
0.34938
  0
LINE
  5
5FEF
330
5FB9
100
AcDbEntity
  8
0
100
AcDbLine
 10
1.235548909734113
 20
0.2305206351473488
 30
0.34938
 11
1.195955160755403
 21
0.1019958492253274
 31
0.34938
  0
LINE
  5
5FF0
330
5FB9
100
AcDbEntity
  8
0
100
AcDbLine
 10
1.124416044890361
 20
0.048769989850328
 30
0.34938
 11
0.9905734800466134
 21
0.048769989850328
 31
0.34938
  0
LINE
  5
5FF1
330
5FB9
100
AcDbEntity
  8
0
100
AcDbLine
 10
0.9905734800466134
 20
0.048769989850328
 30
0.34938
 11
0.9905734800466134
 21
0.2753210836003279
 31
0.34938
  0
ARC
  5
5FF2
330
5FB9
100
AcDbEntity
  8
0
100
AcDbCircle
 10
1.479130223998222
 20
0.2493905367253339
 30
0.34938
 40
0.1112320638963407
100
AcDbArc
 50
295.3783953421117
 51
313.157562911559
  0
ARC
  5
5FF3
330
5FB9
100
AcDbEntity
  8
0
100
AcDbCircle
 10
1.488850655351022
 20
0.0585567498598709
 30
0.34938
 40
0.097984775187765
100
AcDbArc
 50
41.8214311105379
 51
67.21116987831337
  0
ARC
  5
5FF4
330
5FB9
100
AcDbEntity
  8
0
100
AcDbCircle
 10
1.483825582321294
 20
0.1630760249859393
 30
0.34938
 40
0.1122450586143883
100
AcDbArc
 50
58.67020583628413
 51
90.00000000000101
  0
ARC
  5
5FF5
330
5FB9
100
AcDbEntity
  8
0
100
AcDbCircle
 10
1.488683583373234
 20
0.1180860046543759
 30
0.34938
 40
0.115718046054048
100
AcDbArc
 50
269.9999999999952
 51
297.4526478761186
  0
LINE
  5
5FF6
330
5FB9
100
AcDbEntity
  8
0
100
AcDbLine
 10
1.479912122488208
 20
0.2343781148503283
 30
0.34938
 11
1.410891942748225
 21
0.2343781148503283
 31
0.34938
  0
LINE
  5
5FF7
330
5FB9
100
AcDbEntity
  8
0
100
AcDbLine
 10
1.410891942748225
 20
0.2343781148503283
 30
0.34938
 11
1.410891942748225
 21
0.1661398336003272
 31
0.34938
  0
LINE
  5
5FF8
330
5FB9
100
AcDbEntity
  8
0
100
AcDbLine
 10
1.410891942748225
 20
0.1661398336003272
 30
0.34938
 11
1.47991212536424
 21
0.1661398336003272
 31
0.34938
  0
ARC
  5
5FF9
330
5FB9
100
AcDbEntity
  8
0
100
AcDbCircle
 10
1.47991212536424
 20
0.2002589742253278
 30
0.34938
 40
0.034119140625
100
AcDbArc
 50
270.0
 51
90.00000482967505
  0
LINE
  5
5FFA
330
5FB9
100
AcDbEntity
  8
0
100
AcDbLine
 10
1.483438830222384
 20
0.1238320992253281
 30
0.34938
 11
1.410891942748225
 21
0.1238320992253281
 31
0.34938
  0
LINE
  5
5FFB
330
5FB9
100
AcDbEntity
  8
0
100
AcDbLine
 10
1.483825582321291
 20
0.2753210836003279
 30
0.34938
 11
1.356301317748224
 21
0.2753210836003279
 31
0.34938
  0
LINE
  5
5FFC
330
5FB9
100
AcDbEntity
  8
0
100
AcDbLine
 10
1.410891942748225
 20
0.044675692975328
 30
0.34938
 11
1.476400692748221
 21
0.044675692975328
 31
0.34938
  0
ARC
  5
5FFD
330
5FB9
100
AcDbEntity
  8
0
100
AcDbCircle
 10
1.476400692748221
 20
0.093135819213479
 30
0.34938
 40
0.0484601262381522
100
AcDbArc
 50
270.0
 51
313.2275081247473
  0
POLYLINE
  5
5FFE
330
5FB9
100
AcDbEntity
  8
0
100
AcDb2dPolyline
 66
     1
 10
0.0
 20
0.0
 30
0.34938
  0
VERTEX
  5
631A
330
5FFE
100
AcDbEntity
  8
0
100
AcDbVertex
100
AcDb2dVertex
 10
1.363154495671611
 20
0.0023679586003289
 30
0.34938
  0
VERTEX
  5
631B
330
5FFE
100
AcDbEntity
  8
0
100
AcDbVertex
100
AcDb2dVertex
 10
1.305834339421615
 20
0.0023679586003276
 30
0.34938
  0
VERTEX
  5
631C
330
5FFE
100
AcDbEntity
  8
0
100
AcDbVertex
100
AcDb2dVertex
 10
1.287755678182184
 20
0.0610528804753279
 30
0.34938
  0
SEQEND
  5
631D
330
5FFE
100
AcDbEntity
  8
0
  0
LINE
  5
5FFF
330
5FB9
100
AcDbEntity
  8
0
100
AcDbLine
 10
1.356301317748224
 20
0.0023679586003289
 30
0.34938
 11
1.488683583373223
 21
0.0023679586003289
 31
0.34938
  0
LINE
  5
6000
330
5FB9
100
AcDbEntity
  8
0
100
AcDbLine
 10
1.356301317748224
 20
0.2753210836003279
 30
0.34938
 11
1.356301317748224
 21
0.0216726851450804
 31
0.34938
  0
LINE
  5
6001
330
5FB9
100
AcDbEntity
  8
0
100
AcDbLine
 10
1.410891942748225
 20
0.1238320992253281
 30
0.34938
 11
1.410891942748225
 21
0.044675692975328
 31
0.34938
  0
ARC
  5
6002
330
5FB9
100
AcDbEntity
  8
0
100
AcDbCircle
 10
1.483438830222384
 20
0.085648171261072
 30
0.34938
 40
0.0381839279642565
100
AcDbArc
 50
313.2275081247476
 51
90.0
  0
ARC
  5
6003
330
5FB9
100
AcDbEntity
  8
0
100
AcDbCircle
 10
1.509848954292332
 20
0.0773455338264282
 30
0.34938
 40
0.0698077107315333
100
AcDbArc
 50
5.797666812800194
 51
41.82143111053831
  0
ARC
  5
6004
330
5FB9
100
AcDbEntity
  8
0
100
AcDbCircle
 10
1.51024443248119
 20
0.2064765433833915
 30
0.34938
 40
0.0614359979958454
100
AcDbArc
 50
358.6532608214001
 51
58.67020583628288
  0
ARC
  5
6005
330
5FB9
100
AcDbEntity
  8
0
100
AcDbCircle
 10
1.519575057953524
 20
0.2062571863265554
 30
0.34938
 40
0.0521027944074
100
AcDbArc
 50
313.1575629115595
 51
358.653260821401
  0
ARC
  5
6006
330
5FB9
100
AcDbEntity
  8
0
100
AcDbCircle
 10
1.509848954292332
 20
0.0773455338264282
 30
0.34938
 40
0.0698077107315333
100
AcDbArc
 50
297.4526478761237
 51
341.3323115150402
  0
POLYLINE
  5
6007
330
5FB9
100
AcDbEntity
  8
0
100
AcDb2dPolyline
 66
     1
 10
0.0
 20
0.0
 30
0.34938
 40
0.005135886
 41
0.005135886
  0
VERTEX
  5
631E
330
6007
100
AcDbEntity
  8
0
100
AcDbVertex
100
AcDb2dVertex
 10
1.875604469201887
 20
0.2584799218284721
 30
0.34938
 42
0.3426274439635524
  0
VERTEX
  5
631F
330
6007
100
AcDbEntity
  8
0
100
AcDbVertex
100
AcDb2dVertex
 10
1.850841554462519
 20
0.2321473747852898
 30
0.34938
 42
0.2942809489964497
  0
VERTEX
  5
6320
330
6007
100
AcDbEntity
  8
0
100
AcDbVertex
100
AcDb2dVertex
 10
1.868487315383209
 20
0.1980784590160529
 30
0.34938
 42
0.2735375373643303
  0
VERTEX
  5
6321
330
6007
100
AcDbEntity
  8
0
100
AcDbVertex
100
AcDb2dVertex
 10
1.932709290355532
 20
0.1989466727774789
 30
0.34938
 42
0.208169861593478
  0
VERTEX
  5
6322
330
6007
100
AcDbEntity
  8
0
100
AcDbVertex
100
AcDb2dVertex
 10
1.949032169149893
 20
0.2221629906853679
 30
0.34938
 42
0.4189849082168211
  0
VERTEX
  5
6323
330
6007
100
AcDbEntity
  8
0
100
AcDbVertex
100
AcDb2dVertex
 10
1.923866394966449
 20
0.2596498996557961
 30
0.34938
 42
0.4189849082168211
  0
SEQEND
  5
6324
330
6007
100
AcDbEntity
  8
0
  0
SOLID
  5
6008
330
5FB9
100
AcDbEntity
  8
0
100
AcDbTrace
 10
1.836454414497891
 20
0.0724730754240572
 30
0.34938
 11
1.964848766952641
 21
0.1533139640066774
 31
0.34938
 12
1.836463982570752
 22
0.0467428670899106
 32
0.34938
 13
1.964851564497887
 23
0.1263998784240567
 33
0.34938
  0
SOLID
  5
6009
330
5FB9
100
AcDbEntity
  8
0
100
AcDbTrace
 10
1.836454414497891
 20
0.1540052656740571
 30
0.34938
 11
1.964851564497887
 21
0.1540052656740571
 31
0.34938
 12
1.836454414497891
 22
0.1270418641740574
 32
0.34938
 13
1.964851564497887
 23
0.1270418641740574
 33
0.34938
  0
SOLID
  5
600A
330
5FB9
100
AcDbEntity
  8
0
100
AcDbTrace
 10
1.964851564497887
 20
0.0448676881740569
 30
0.34938
 11
1.836454414497891
 21
0.0448676881740569
 31
0.34938
 12
1.964851564497887
 22
0.0718310896740566
 32
0.34938
 13
1.836454414497891
 23
0.0718310896740566
 33
0.34938
  0
SOLID
  5
600B
330
5FB9
100
AcDbEntity
  8
0
100
AcDbTrace
 10
1.836454422551518
 20
-0.0045652133514511
 30
0.34938
 11
1.836454422551518
 21
0.0223981881485487
 31
0.34938
 12
1.964851572551516
 22
-0.0045652133514511
 32
0.34938
 13
1.964851572551516
 23
0.0223981881485487
 33
0.34938
  0
SOLID
  5
600C
330
5FB9
100
AcDbEntity
  8
0
100
AcDbTrace
 10
1.878118729821983
 20
0.1922021012655084
 30
0.34938
 11
1.86494111617041
 21
0.1764465216795306
 31
0.34938
 12
1.904473957125109
 22
0.1900856801270936
 32
0.34938
 13
1.905885844302062
 23
0.1682159950301405
 33
0.34938
  0
POLYLINE
  5
600D
330
5FB9
100
AcDbEntity
  8
0
100
AcDb2dPolyline
 66
     1
 10
0.0
 20
0.0
 30
0.34938
 40
0.005135886
 41
0.005135886
  0
VERTEX
  5
6325
330
600D
100
AcDbEntity
  8
0
100
AcDbVertex
100
AcDb2dVertex
 10
1.872741449783834
 20
0.1741509664131393
 30
0.34938
 42
0.2706611322925477
  0
VERTEX
  5
6326
330
600D
100
AcDbEntity
  8
0
100
AcDbVertex
100
AcDb2dVertex
 10
1.945661635105341
 20
0.1855145211996017
 30
0.34938
 42
0.2706611322925477
  0
SEQEND
  5
6327
330
600D
100
AcDbEntity
  8
0
  0
POLYLINE
  5
600E
330
5FB9
100
AcDbEntity
  8
0
100
AcDb2dPolyline
 66
     1
 10
0.0
 20
0.0
 30
0.34938
 40
0.005135886
 41
0.005135886
  0
VERTEX
  5
6328
330
600E
100
AcDbEntity
  8
0
100
AcDbVertex
100
AcDb2dVertex
 10
1.8755288977542
 20
0.2784067942650519
 30
0.34938
 42
0.2841209316902218
  0
VERTEX
  5
6329
330
600E
100
AcDbEntity
  8
0
100
AcDbVertex
100
AcDb2dVertex
 10
1.838436999740206
 20
0.2473790826851618
 30
0.34938
 42
0.2888447634665965
  0
SEQEND
  5
632A
330
600E
100
AcDbEntity
  8
0
  0
SOLID
  5
600F
330
5FB9
100
AcDbEntity
  8
0
100
AcDbTrace
 10
1.85364601875478
 20
0.2117202073197775
 30
0.34938
 11
1.838115259808294
 21
0.205370943904533
 31
0.34938
 12
1.878118729821983
 22
0.1922021012655084
 32
0.34938
 13
1.86494111617041
 23
0.1764465216795306
 33
0.34938
  0
SOLID
  5
6010
330
5FB9
100
AcDbEntity
  8
0
100
AcDbTrace
 10
1.851057558930374
 20
0.2389985242149009
 30
0.34938
 11
1.836232743572361
 21
0.2451126297258761
 31
0.34938
 12
1.85364601875478
 22
0.2117202073197775
 32
0.34938
 13
1.838115259808294
 23
0.205370943904533
 33
0.34938
  0
SOLID
  5
6011
330
5FB9
100
AcDbEntity
  8
0
100
AcDbTrace
 10
1.867058946935841
 20
0.2561650512264859
 30
0.34938
 11
1.854116647813771
 21
0.2702745254825847
 31
0.34938
 12
1.851057558930374
 22
0.2389985242149009
 32
0.34938
 13
1.836232743572361
 23
0.2451126297258761
 33
0.34938
  0
POLYLINE
  5
6012
330
5FB9
100
AcDbEntity
  8
0
100
AcDb2dPolyline
 66
     1
 10
0.0
 20
0.0
 30
0.34938
 40
0.005135886
 41
0.005135886
  0
VERTEX
  5
632B
330
6012
100
AcDbEntity
  8
0
100
AcDbVertex
100
AcDb2dVertex
 10
1.838436999740206
 20
0.2473790826851618
 30
0.34938
 42
0.3986208060685013
  0
VERTEX
  5
632C
330
6012
100
AcDbEntity
  8
0
100
AcDbVertex
100
AcDb2dVertex
 10
1.872741449783834
 20
0.1741509664131393
 30
0.34938
 42
0.3986208060685013
  0
SEQEND
  5
632D
330
6012
100
AcDbEntity
  8
0
  0
SOLID
  5
6013
330
5FB9
100
AcDbEntity
  8
0
100
AcDbTrace
 10
1.87247877190544
 20
0.2575532414355526
 30
0.34938
 11
1.870808797825169
 21
0.2797794562583307
 31
0.34938
 12
1.87600325393792
 22
0.2559431321277752
 32
0.34938
 13
1.87600325393792
 23
0.2810620028868871
 33
0.34938
  0
SOLID
  5
6014
330
5FB9
100
AcDbEntity
  8
0
100
AcDbTrace
 10
1.867058946935841
 20
0.2561650512264859
 30
0.34938
 11
1.854116647813771
 21
0.2702745254825847
 31
0.34938
 12
1.87247877190544
 22
0.2575532414355526
 32
0.34938
 13
1.870808797825169
 23
0.2797794562583307
 33
0.34938
  0
SOLID
  5
6015
330
5FB9
100
AcDbEntity
  8
0
100
AcDbTrace
 10
1.926919129339019
 20
0.2579894763883987
 30
0.34938
 11
1.929649586465419
 21
0.2815684263365026
 31
0.34938
 12
1.92339138483954
 22
0.2571262719830627
 32
0.34938
 13
1.92339138483954
 23
0.2830968592554597
 33
0.34938
  0
POLYLINE
  5
6016
330
5FB9
100
AcDbEntity
  8
0
100
AcDb2dPolyline
 66
     1
 10
0.0
 20
0.0
 30
0.34938
 40
0.005135886
 41
0.005135886
  0
VERTEX
  5
632E
330
6016
100
AcDbEntity
  8
0
100
AcDbVertex
100
AcDb2dVertex
 10
1.960118205018853
 20
0.2537678273452397
 30
0.34938
 42
0.2619660936757589
  0
VERTEX
  5
632F
330
6016
100
AcDbEntity
  8
0
100
AcDbVertex
100
AcDb2dVertex
 10
1.923746088964545
 20
0.2804715870934902
 30
0.34938
 42
0.2656465770789468
  0
SEQEND
  5
6330
330
6016
100
AcDbEntity
  8
0
  0
SOLID
  5
6017
330
5FB9
100
AcDbEntity
  8
0
100
AcDbTrace
 10
1.943042767588014
 20
0.2484920763823766
 30
0.34938
 11
1.958901828257101
 21
0.2591443501587882
 31
0.34938
 12
1.926919129339019
 22
0.2579894763883987
 32
0.34938
 13
1.929649586465419
 23
0.2815684263365026
 33
0.34938
  0
SOLID
  5
6018
330
5FB9
100
AcDbEntity
  8
0
100
AcDbTrace
 10
1.949802367217465
 20
0.2261482826074639
 30
0.34938
 11
1.96644138168995
 21
0.2178343128307527
 31
0.34938
 12
1.943042767588014
 22
0.2484920763823766
 32
0.34938
 13
1.958901828257101
 23
0.2591443501587882
 33
0.34938
  0
SOLID
  5
6019
330
5FB9
100
AcDbEntity
  8
0
100
AcDbTrace
 10
1.938623029368764
 20
0.2009465617218074
 30
0.34938
 11
1.948242459610669
 21
0.1850980568349514
 31
0.34938
 12
1.949802367217465
 22
0.2261482826074639
 32
0.34938
 13
1.96644138168995
 23
0.2178343128307527
 33
0.34938
  0
SOLID
  5
601A
330
5FB9
100
AcDbEntity
  8
0
100
AcDbTrace
 10
1.904473957125109
 20
0.1900856801270936
 30
0.34938
 11
1.905885844302062
 21
0.1682159950301405
 31
0.34938
 12
1.938623029368764
 22
0.2009465617218074
 32
0.34938
 13
1.948242459610669
 23
0.1850980568349514
 33
0.34938
  0
POLYLINE
  5
601B
330
5FB9
100
AcDbEntity
  8
0
100
AcDb2dPolyline
 66
     1
 10
0.0
 20
0.0
 30
0.34938
 40
0.005135886
 41
0.005135886
  0
VERTEX
  5
6331
330
601B
100
AcDbEntity
  8
0
100
AcDbVertex
100
AcDb2dVertex
 10
1.964592299843333
 20
0.2175809996119917
 30
0.34938
 42
0.1521907920671271
  0
VERTEX
  5
6332
330
601B
100
AcDbEntity
  8
0
100
AcDbVertex
100
AcDb2dVertex
 10
1.960118205018853
 20
0.2537678273452397
 30
0.34938
 42
0.1521907920671271
  0
SEQEND
  5
6333
330
601B
100
AcDbEntity
  8
0
  0
POLYLINE
  5
601C
330
5FB9
100
AcDbEntity
  8
0
100
AcDb2dPolyline
 66
     1
 10
0.0
 20
0.0
 30
0.34938
 40
0.005135886
 41
0.005135886
  0
VERTEX
  5
6334
330
601C
100
AcDbEntity
  8
0
100
AcDbVertex
100
AcDb2dVertex
 10
1.945661635105341
 20
0.1855145211996017
 30
0.34938
 42
0.1790006504245718
  0
VERTEX
  5
6335
330
601C
100
AcDbEntity
  8
0
100
AcDbVertex
100
AcDb2dVertex
 10
1.964592299843333
 20
0.2175809996119917
 30
0.34938
 42
0.1790006504245718
  0
SEQEND
  5
6336
330
601C
100
AcDbEntity
  8
0
  0
ENDBLK
  5
601E
330
5FB9
100
AcDbEntity
  8
0
100
AcDbBlockEnd
  0
BLOCK
  5
6023
330
601F
100
AcDbEntity
  8
0
100
AcDbBlockBegin
  2
CE-MARK
 70
     0
 10
0.0
 20
0.0
 30
0.0
  3
CE-MARK
  1

  0
POLYLINE
  5
6020
330
601F
100
AcDbEntity
  8
0
100
AcDb2dPolyline
 66
     1
 10
0.0
 20
0.0
 30
0.0
 40
0.04
 41
0.04
  0
VERTEX
  5
6337
330
6020
100
AcDbEntity
  8
0
100
AcDbVertex
100
AcDb2dVertex
 10
-0.0367329377906423
 20
0.0837807382545677
 30
0.0
 42
1.0
  0
VERTEX
  5
6338
330
6020
100
AcDbEntity
  8
0
100
AcDbVertex
100
AcDb2dVertex
 10
-0.0367329377906423
 20
-0.0862192617454323
 30
0.0
 42
1.0
  0
SEQEND
  5
6339
330
6020
100
AcDbEntity
  8
0
  0
POLYLINE
  5
6021
330
601F
100
AcDbEntity
  8
0
100
AcDb2dPolyline
 66
     1
 10
0.0
 20
0.0
 30
0.0
 40
0.04
 41
0.04
  0
VERTEX
  5
633A
330
6021
100
AcDbEntity
  8
0
100
AcDbVertex
100
AcDb2dVertex
 10
0.0297280929639587
 20
-0.0011890584698246
 30
0.0
  0
VERTEX
  5
633B
330
6021
100
AcDbEntity
  8
0
100
AcDbVertex
100
AcDb2dVertex
 10
0.1197280929639586
 20
-0.0011890584698246
 30
0.0
  0
SEQEND
  5
633C
330
6021
100
AcDbEntity
  8
0
  0
POLYLINE
  5
6022
330
601F
100
AcDbEntity
  8
0
100
AcDb2dPolyline
 66
     1
 10
0.0
 20
0.0
 30
0.0
 40
0.04
 41
0.04
  0
VERTEX
  5
633D
330
6022
100
AcDbEntity
  8
0
100
AcDbVertex
100
AcDb2dVertex
 10
0.1332670622093577
 20
0.0837807382545677
 30
0.0
 42
1.0
  0
VERTEX
  5
633E
330
6022
100
AcDbEntity
  8
0
100
AcDbVertex
100
AcDb2dVertex
 10
0.1332670622093577
 20
-0.0862192617454323
 30
0.0
 42
1.0
  0
SEQEND
  5
633F
330
6022
100
AcDbEntity
  8
0
  0
ENDBLK
  5
6024
330
601F
100
AcDbEntity
  8
0
100
AcDbBlockEnd
  0
BLOCK
  5
617A
330
6176
100
AcDbEntity
  8
0
100
AcDbBlockBegin
  2
ESD-INFO
 70
     0
 10
0.0
 20
0.0
 30
0.0
  3
ESD-INFO
  1

  0
LINE
  5
6177
330
6176
100
AcDbEntity
  8
D1
100
AcDbLine
 10
2.98789804994233
 20
0.0002966651217227
 30
0.0
 11
-2.987323406216175
 21
0.0002966651217227
 31
0.0
  0
LINE
  5
6178
330
6176
100
AcDbEntity
  8
D1
100
AcDbLine
 10
-2.892290062977073
 20
0.0596366990926454
 30
0.0
 11
2.892864706703228
 21
0.0596366990926454
 31
0.0
  0
TEXT
  5
6179
330
6176
100
AcDbEntity
  8
D1
100
AcDbText
 10
-2.79456480303434
 20
0.1065187961070997
 30
0.0
 40
0.15
  1
INFORMATION ONLY, NOT FOR MANUFACTURING
100
AcDbText
  0
ENDBLK
  5
617B
330
6176
100
AcDbEntity
  8
0
100
AcDbBlockEnd
  0
BLOCK
  5
6182
330
6180
100
AcDbEntity
  8
0
100
AcDbBlockBegin
  2
COPYRIGHT00
 70
     0
 10
0.0
 20
0.0
 30
0.0
  3
COPYRIGHT00
  1

  0
MTEXT
  5
6181
330
6180
100
AcDbEntity
  8
BORDER
100
AcDbMText
 10
0.0258733304183885
 20
0.323044704881891
 30
0.0
 40
0.25
 41
9.340999999999999
 71
     1
 72
     1
  1
\FVERDANA.TTF;COPYRIGHT \FSYMBOL.TTF;\H0.3;Ó\FVERDANA.TTF;\H0.25; 2000 by THORLABS INC.
1001
ACAD
1000
MTEXTBEGIN
1070
    73
1070
     1
1070
    44
1040
1.0
1070
    74
1070
     0
1000
MTEXTEND
  0
ENDBLK
  5
6183
330
6180
100
AcDbEntity
  8
0
100
AcDbBlockEnd
  0
BLOCK
  5
6188
330
6186
100
AcDbEntity
  8
0
100
AcDbBlockBegin
  2
COPYWRITE
 70
     0
 10
0.0
 20
0.0
 30
0.0
  3
COPYWRITE
  1

  0
MTEXT
  5
6187
330
6186
100
AcDbEntity
  8
BORDER
100
AcDbMText
 10
0.3955447385683524
 20
8.629262701746421
 30
0.0
 40
0.25
 41
9.340999999999999
 71
     1
 72
     1
  1
{\FVERDANA.TTF;COPYRIGHT \FSYMBOL.TTF;\H1.2x;Ó\FVERDANA.TTF;\H0.8333x; 2002 by THORLABS INC.}
1001
ACAD
1000
MTEXTBEGIN
1070
    73
1070
     1
1070
    44
1040
1.0
1070
    74
1070
     0
1000
MTEXTEND
  0
ENDBLK
  5
6189
330
6186
100
AcDbEntity
  8
0
100
AcDbBlockEnd
  0
BLOCK
  5
61D0
330
61CF
100
AcDbEntity
  8
0
100
AcDbBlockBegin
  2
FDS010
 70
     0
 10
0.0
 20
0.0
 30
0.0
  3
FDS010
  1

  0
LINE
  5
61D2
330
61CF
100
AcDbEntity
  8
0
  6
CONTINUOUS
100
AcDbLine
 10
0.0525000000000011
 20
0.1625000000000001
 30
0.0
 11
0.173
 21
0.1625000000000001
 31
0.0
  0
LINE
  5
61D3
330
61CF
100
AcDbEntity
  8
0
  6
CONTINUOUS
100
AcDbLine
 10
0.0525000000000002
 20
-0.1625000000000001
 30
0.0
 11
0.1729999999999991
 21
-0.1624999999999996
 31
0.0
  0
LINE
  5
61D4
330
61CF
100
AcDbEntity
  8
0
  6
CONTINUOUS
100
AcDbLine
 10
0.1200000000000001
 20
0.0299999999999998
 30
0.0
 11
0.0425000000000004
 21
0.0299999999999998
 31
0.0
  0
LINE
  5
61D5
330
61CF
100
AcDbEntity
  8
0
  6
CONTINUOUS
100
AcDbLine
 10
0.1200000000000001
 20
-0.0299999999999998
 30
0.0
 11
0.0425000000000004
 21
-0.0299999999999998
 31
0.0
  0
LINE
  5
61D6
330
61CF
100
AcDbEntity
  8
0
  6
CONTINUOUS
100
AcDbLine
 10
0.0
 20
0.1799999999999997
 30
0.0
 11
0.0
 21
-0.1799999999999997
 31
0.0
  0
LINE
  5
61D7
330
61CF
100
AcDbEntity
  8
0
  6
CONTINUOUS
100
AcDbLine
 10
0.0425000000000004
 20
0.1799999999999997
 30
0.0
 11
0.0425000000000004
 21
-0.1799999999999997
 31
0.0
  0
LINE
  5
61D8
330
61CF
100
AcDbEntity
  8
0
  6
CONTINUOUS
100
AcDbLine
 10
0.0
 20
-0.1799999999999997
 30
0.0
 11
0.0425000000000004
 21
-0.1799999999999997
 31
0.0
  0
LINE
  5
61D9
330
61CF
100
AcDbEntity
  8
0
  6
CONTINUOUS
100
AcDbLine
 10
0.0425000000000004
 20
-0.1799999999999997
 30
0.0
 11
0.0425000000000004
 21
-0.1724999999999999
 31
0.0
  0
ARC
  5
61DA
330
61CF
100
AcDbEntity
  8
0
  6
CONTINUOUS
100
AcDbCircle
 10
0.0525000000000002
 20
-0.1724999999999999
 30
0.0
 40
0.01
100
AcDbArc
 50
90.00000000000019
 51
180.0
  0
LINE
  5
61DB
330
61CF
100
AcDbEntity
  8
0
  6
CONTINUOUS
100
AcDbLine
 10
0.1000000000000005
 20
0.0299999999999998
 30
0.0
 11
0.1000000000000005
 21
-0.0300000000000003
 31
0.0
  0
LINE
  5
61DC
330
61CF
100
AcDbEntity
  8
0
  6
CONTINUOUS
100
AcDbLine
 10
0.0425000000000004
 20
0.1799999999999997
 30
0.0
 11
0.0
 21
0.1799999999999997
 31
0.0
  0
LINE
  5
61DD
330
61CF
100
AcDbEntity
  8
0
  6
CONTINUOUS
100
AcDbLine
 10
0.0425000000000013
 20
0.1724999999999999
 30
0.0
 11
0.0425000000000004
 21
0.1799999999999997
 31
0.0
  0
ARC
  5
61DE
330
61CF
100
AcDbEntity
  8
0
  6
CONTINUOUS
100
AcDbCircle
 10
0.0525000000000011
 20
0.1724999999999999
 30
0.0
 40
0.01
100
AcDbArc
 50
180.0
 51
270.0
  0
LINE
  5
61DF
330
61CF
100
AcDbEntity
  8
0
  6
CONTINUOUS
100
AcDbLine
 10
0.1829999999999998
 20
0.1525000000000003
 30
0.0
 11
0.1829999999999989
 21
-0.1524999999999999
 31
0.0
  0
ARC
  5
61E0
330
61CF
100
AcDbEntity
  8
0
  6
CONTINUOUS
100
AcDbCircle
 10
0.1729999999999991
 20
-0.1524999999999999
 30
0.0
 40
0.01
100
AcDbArc
 50
270.0
 51
359.9999999999997
  0
LINE
  5
61E1
330
61CF
100
AcDbEntity
  8
0
  6
CONTINUOUS
100
AcDbLine
 10
0.1200000000000001
 20
0.0299999999999998
 30
0.0
 11
0.1200000000000001
 21
-0.0300000000000003
 31
0.0
  0
ARC
  5
61E2
330
61CF
100
AcDbEntity
  8
0
  6
CONTINUOUS
100
AcDbCircle
 10
0.173
 20
0.1525000000000003
 30
0.0
 40
0.01
100
AcDbArc
 50
359.9999999999997
 51
90.0
  0
ENDBLK
  5
61D1
330
61CF
100
AcDbEntity
  8
0
100
AcDbBlockEnd
  0
BLOCK
  5
63C4
330
6341
100
AcDbEntity
  8
0
100
AcDbBlockBegin
  2
*X8
 70
     1
 10
0.0
 20
0.0
 30
0.0
  3
*X8
  1

  0
LINE
  5
6342
330
6341
100
AcDbEntity
  8
0
  6
CONTINUOUS
 62
     0
100
AcDbLine
 10
13.90956864188443
 20
6.460861620010811
 30
0.0
 11
13.90956864188443
 21
6.460861620010811
 31
0.0
  0
LINE
  5
6343
330
6341
100
AcDbEntity
  8
0
  6
CONTINUOUS
 62
     0
100
AcDbLine
 10
13.90644364188443
 20
6.460861620010811
 30
0.0
 11
13.90644364188443
 21
6.460861620010811
 31
0.0
  0
LINE
  5
6344
330
6341
100
AcDbEntity
  8
0
  6
CONTINUOUS
 62
     0
100
AcDbLine
 10
13.90331864188443
 20
6.460861620010811
 30
0.0
 11
13.90331864188443
 21
6.460861620010811
 31
0.0
  0
LINE
  5
6345
330
6341
100
AcDbEntity
  8
0
  6
CONTINUOUS
 62
     0
100
AcDbLine
 10
13.90019364188443
 20
6.460861620010811
 30
0.0
 11
13.90019364188443
 21
6.460861620010811
 31
0.0
  0
LINE
  5
6346
330
6341
100
AcDbEntity
  8
0
  6
CONTINUOUS
 62
     0
100
AcDbLine
 10
13.89706864188443
 20
6.460861620010811
 30
0.0
 11
13.89706864188443
 21
6.460861620010811
 31
0.0
  0
LINE
  5
6347
330
6341
100
AcDbEntity
  8
0
  6
CONTINUOUS
 62
     0
100
AcDbLine
 10
13.91425614188443
 20
6.463986620010812
 30
0.0
 11
13.91425614188443
 21
6.463986620010812
 31
0.0
  0
LINE
  5
6348
330
6341
100
AcDbEntity
  8
0
  6
CONTINUOUS
 62
     0
100
AcDbLine
 10
13.91113114188443
 20
6.463986620010812
 30
0.0
 11
13.91113114188443
 21
6.463986620010812
 31
0.0
  0
LINE
  5
6349
330
6341
100
AcDbEntity
  8
0
  6
CONTINUOUS
 62
     0
100
AcDbLine
 10
13.90800614188443
 20
6.463986620010812
 30
0.0
 11
13.90800614188443
 21
6.463986620010812
 31
0.0
  0
LINE
  5
634A
330
6341
100
AcDbEntity
  8
0
  6
CONTINUOUS
 62
     0
100
AcDbLine
 10
13.90488114188443
 20
6.463986620010812
 30
0.0
 11
13.90488114188443
 21
6.463986620010812
 31
0.0
  0
LINE
  5
634B
330
6341
100
AcDbEntity
  8
0
  6
CONTINUOUS
 62
     0
100
AcDbLine
 10
13.90175614188443
 20
6.463986620010812
 30
0.0
 11
13.90175614188443
 21
6.463986620010812
 31
0.0
  0
LINE
  5
634C
330
6341
100
AcDbEntity
  8
0
  6
CONTINUOUS
 62
     0
100
AcDbLine
 10
13.89863114188443
 20
6.463986620010812
 30
0.0
 11
13.89863114188443
 21
6.463986620010812
 31
0.0
  0
LINE
  5
634D
330
6341
100
AcDbEntity
  8
0
  6
CONTINUOUS
 62
     0
100
AcDbLine
 10
13.89550614188443
 20
6.463986620010812
 30
0.0
 11
13.89550614188443
 21
6.463986620010812
 31
0.0
  0
LINE
  5
634E
330
6341
100
AcDbEntity
  8
0
  6
CONTINUOUS
 62
     0
100
AcDbLine
 10
13.89238114188443
 20
6.463986620010812
 30
0.0
 11
13.89238114188443
 21
6.463986620010812
 31
0.0
  0
LINE
  5
634F
330
6341
100
AcDbEntity
  8
0
  6
CONTINUOUS
 62
     0
100
AcDbLine
 10
13.88925614188442
 20
6.463986620010812
 30
0.0
 11
13.88925614188442
 21
6.463986620010812
 31
0.0
  0
LINE
  5
6350
330
6341
100
AcDbEntity
  8
0
  6
CONTINUOUS
 62
     0
100
AcDbLine
 10
13.91581864188443
 20
6.467111620010812
 30
0.0
 11
13.91581864188443
 21
6.467111620010812
 31
0.0
  0
LINE
  5
6351
330
6341
100
AcDbEntity
  8
0
  6
CONTINUOUS
 62
     0
100
AcDbLine
 10
13.91269364188443
 20
6.467111620010812
 30
0.0
 11
13.91269364188443
 21
6.467111620010812
 31
0.0
  0
LINE
  5
6352
330
6341
100
AcDbEntity
  8
0
  6
CONTINUOUS
 62
     0
100
AcDbLine
 10
13.90956864188443
 20
6.467111620010812
 30
0.0
 11
13.90956864188443
 21
6.467111620010812
 31
0.0
  0
LINE
  5
6353
330
6341
100
AcDbEntity
  8
0
  6
CONTINUOUS
 62
     0
100
AcDbLine
 10
13.90644364188443
 20
6.467111620010812
 30
0.0
 11
13.90644364188443
 21
6.467111620010812
 31
0.0
  0
LINE
  5
6354
330
6341
100
AcDbEntity
  8
0
  6
CONTINUOUS
 62
     0
100
AcDbLine
 10
13.90331864188443
 20
6.467111620010812
 30
0.0
 11
13.90331864188443
 21
6.467111620010812
 31
0.0
  0
LINE
  5
6355
330
6341
100
AcDbEntity
  8
0
  6
CONTINUOUS
 62
     0
100
AcDbLine
 10
13.90019364188443
 20
6.467111620010812
 30
0.0
 11
13.90019364188443
 21
6.467111620010812
 31
0.0
  0
LINE
  5
6356
330
6341
100
AcDbEntity
  8
0
  6
CONTINUOUS
 62
     0
100
AcDbLine
 10
13.89706864188443
 20
6.467111620010812
 30
0.0
 11
13.89706864188443
 21
6.467111620010812
 31
0.0
  0
LINE
  5
6357
330
6341
100
AcDbEntity
  8
0
  6
CONTINUOUS
 62
     0
100
AcDbLine
 10
13.89394364188443
 20
6.467111620010812
 30
0.0
 11
13.89394364188443
 21
6.467111620010812
 31
0.0
  0
LINE
  5
6358
330
6341
100
AcDbEntity
  8
0
  6
CONTINUOUS
 62
     0
100
AcDbLine
 10
13.89081864188443
 20
6.467111620010812
 30
0.0
 11
13.89081864188443
 21
6.467111620010812
 31
0.0
  0
LINE
  5
6359
330
6341
100
AcDbEntity
  8
0
  6
CONTINUOUS
 62
     0
100
AcDbLine
 10
13.88769364188442
 20
6.467111620010812
 30
0.0
 11
13.88769364188442
 21
6.467111620010812
 31
0.0
  0
LINE
  5
635A
330
6341
100
AcDbEntity
  8
0
  6
CONTINUOUS
 62
     0
100
AcDbLine
 10
13.91738114188443
 20
6.470236620010812
 30
0.0
 11
13.91738114188443
 21
6.470236620010812
 31
0.0
  0
LINE
  5
635B
330
6341
100
AcDbEntity
  8
0
  6
CONTINUOUS
 62
     0
100
AcDbLine
 10
13.91425614188443
 20
6.470236620010812
 30
0.0
 11
13.91425614188443
 21
6.470236620010812
 31
0.0
  0
LINE
  5
635C
330
6341
100
AcDbEntity
  8
0
  6
CONTINUOUS
 62
     0
100
AcDbLine
 10
13.91113114188443
 20
6.470236620010812
 30
0.0
 11
13.91113114188443
 21
6.470236620010812
 31
0.0
  0
LINE
  5
635D
330
6341
100
AcDbEntity
  8
0
  6
CONTINUOUS
 62
     0
100
AcDbLine
 10
13.90800614188443
 20
6.470236620010812
 30
0.0
 11
13.90800614188443
 21
6.470236620010812
 31
0.0
  0
LINE
  5
635E
330
6341
100
AcDbEntity
  8
0
  6
CONTINUOUS
 62
     0
100
AcDbLine
 10
13.90488114188443
 20
6.470236620010812
 30
0.0
 11
13.90488114188443
 21
6.470236620010812
 31
0.0
  0
LINE
  5
635F
330
6341
100
AcDbEntity
  8
0
  6
CONTINUOUS
 62
     0
100
AcDbLine
 10
13.90175614188443
 20
6.470236620010812
 30
0.0
 11
13.90175614188443
 21
6.470236620010812
 31
0.0
  0
LINE
  5
6360
330
6341
100
AcDbEntity
  8
0
  6
CONTINUOUS
 62
     0
100
AcDbLine
 10
13.89863114188443
 20
6.470236620010812
 30
0.0
 11
13.89863114188443
 21
6.470236620010812
 31
0.0
  0
LINE
  5
6361
330
6341
100
AcDbEntity
  8
0
  6
CONTINUOUS
 62
     0
100
AcDbLine
 10
13.89550614188443
 20
6.470236620010812
 30
0.0
 11
13.89550614188443
 21
6.470236620010812
 31
0.0
  0
LINE
  5
6362
330
6341
100
AcDbEntity
  8
0
  6
CONTINUOUS
 62
     0
100
AcDbLine
 10
13.89238114188443
 20
6.470236620010812
 30
0.0
 11
13.89238114188443
 21
6.470236620010812
 31
0.0
  0
LINE
  5
6363
330
6341
100
AcDbEntity
  8
0
  6
CONTINUOUS
 62
     0
100
AcDbLine
 10
13.88925614188443
 20
6.470236620010812
 30
0.0
 11
13.88925614188443
 21
6.470236620010812
 31
0.0
  0
LINE
  5
6364
330
6341
100
AcDbEntity
  8
0
  6
CONTINUOUS
 62
     0
100
AcDbLine
 10
13.88613114188443
 20
6.470236620010812
 30
0.0
 11
13.88613114188443
 21
6.470236620010812
 31
0.0
  0
LINE
  5
6365
330
6341
100
AcDbEntity
  8
0
  6
CONTINUOUS
 62
     0
100
AcDbLine
 10
13.91894364188443
 20
6.473361620010812
 30
0.0
 11
13.91894364188443
 21
6.473361620010812
 31
0.0
  0
LINE
  5
6366
330
6341
100
AcDbEntity
  8
0
  6
CONTINUOUS
 62
     0
100
AcDbLine
 10
13.91581864188443
 20
6.473361620010812
 30
0.0
 11
13.91581864188443
 21
6.473361620010812
 31
0.0
  0
LINE
  5
6367
330
6341
100
AcDbEntity
  8
0
  6
CONTINUOUS
 62
     0
100
AcDbLine
 10
13.91269364188443
 20
6.473361620010812
 30
0.0
 11
13.91269364188443
 21
6.473361620010812
 31
0.0
  0
LINE
  5
6368
330
6341
100
AcDbEntity
  8
0
  6
CONTINUOUS
 62
     0
100
AcDbLine
 10
13.90956864188443
 20
6.473361620010812
 30
0.0
 11
13.90956864188443
 21
6.473361620010812
 31
0.0
  0
LINE
  5
6369
330
6341
100
AcDbEntity
  8
0
  6
CONTINUOUS
 62
     0
100
AcDbLine
 10
13.90644364188443
 20
6.473361620010812
 30
0.0
 11
13.90644364188443
 21
6.473361620010812
 31
0.0
  0
LINE
  5
636A
330
6341
100
AcDbEntity
  8
0
  6
CONTINUOUS
 62
     0
100
AcDbLine
 10
13.90331864188443
 20
6.473361620010812
 30
0.0
 11
13.90331864188443
 21
6.473361620010812
 31
0.0
  0
LINE
  5
636B
330
6341
100
AcDbEntity
  8
0
  6
CONTINUOUS
 62
     0
100
AcDbLine
 10
13.90019364188443
 20
6.473361620010812
 30
0.0
 11
13.90019364188443
 21
6.473361620010812
 31
0.0
  0
LINE
  5
636C
330
6341
100
AcDbEntity
  8
0
  6
CONTINUOUS
 62
     0
100
AcDbLine
 10
13.89706864188443
 20
6.473361620010812
 30
0.0
 11
13.89706864188443
 21
6.473361620010812
 31
0.0
  0
LINE
  5
636D
330
6341
100
AcDbEntity
  8
0
  6
CONTINUOUS
 62
     0
100
AcDbLine
 10
13.89394364188443
 20
6.473361620010812
 30
0.0
 11
13.89394364188443
 21
6.473361620010812
 31
0.0
  0
LINE
  5
636E
330
6341
100
AcDbEntity
  8
0
  6
CONTINUOUS
 62
     0
100
AcDbLine
 10
13.89081864188443
 20
6.473361620010812
 30
0.0
 11
13.89081864188443
 21
6.473361620010812
 31
0.0
  0
LINE
  5
636F
330
6341
100
AcDbEntity
  8
0
  6
CONTINUOUS
 62
     0
100
AcDbLine
 10
13.88769364188443
 20
6.473361620010812
 30
0.0
 11
13.88769364188443
 21
6.473361620010812
 31
0.0
  0
LINE
  5
6370
330
6341
100
AcDbEntity
  8
0
  6
CONTINUOUS
 62
     0
100
AcDbLine
 10
13.88456864188443
 20
6.473361620010812
 30
0.0
 11
13.88456864188443
 21
6.473361620010812
 31
0.0
  0
LINE
  5
6371
330
6341
100
AcDbEntity
  8
0
  6
CONTINUOUS
 62
     0
100
AcDbLine
 10
13.92050614188443
 20
6.476486620010811
 30
0.0
 11
13.92050614188443
 21
6.476486620010811
 31
0.0
  0
LINE
  5
6372
330
6341
100
AcDbEntity
  8
0
  6
CONTINUOUS
 62
     0
100
AcDbLine
 10
13.91738114188443
 20
6.476486620010811
 30
0.0
 11
13.91738114188443
 21
6.476486620010811
 31
0.0
  0
LINE
  5
6373
330
6341
100
AcDbEntity
  8
0
  6
CONTINUOUS
 62
     0
100
AcDbLine
 10
13.91425614188443
 20
6.476486620010811
 30
0.0
 11
13.91425614188443
 21
6.476486620010811
 31
0.0
  0
LINE
  5
6374
330
6341
100
AcDbEntity
  8
0
  6
CONTINUOUS
 62
     0
100
AcDbLine
 10
13.91113114188443
 20
6.476486620010811
 30
0.0
 11
13.91113114188443
 21
6.476486620010811
 31
0.0
  0
LINE
  5
6375
330
6341
100
AcDbEntity
  8
0
  6
CONTINUOUS
 62
     0
100
AcDbLine
 10
13.90800614188443
 20
6.476486620010811
 30
0.0
 11
13.90800614188443
 21
6.476486620010811
 31
0.0
  0
LINE
  5
6376
330
6341
100
AcDbEntity
  8
0
  6
CONTINUOUS
 62
     0
100
AcDbLine
 10
13.90488114188443
 20
6.476486620010811
 30
0.0
 11
13.90488114188443
 21
6.476486620010811
 31
0.0
  0
LINE
  5
6377
330
6341
100
AcDbEntity
  8
0
  6
CONTINUOUS
 62
     0
100
AcDbLine
 10
13.90175614188443
 20
6.476486620010811
 30
0.0
 11
13.90175614188443
 21
6.476486620010811
 31
0.0
  0
LINE
  5
6378
330
6341
100
AcDbEntity
  8
0
  6
CONTINUOUS
 62
     0
100
AcDbLine
 10
13.89863114188443
 20
6.476486620010811
 30
0.0
 11
13.89863114188443
 21
6.476486620010811
 31
0.0
  0
LINE
  5
6379
330
6341
100
AcDbEntity
  8
0
  6
CONTINUOUS
 62
     0
100
AcDbLine
 10
13.89550614188443
 20
6.476486620010811
 30
0.0
 11
13.89550614188443
 21
6.476486620010811
 31
0.0
  0
LINE
  5
637A
330
6341
100
AcDbEntity
  8
0
  6
CONTINUOUS
 62
     0
100
AcDbLine
 10
13.89238114188443
 20
6.476486620010811
 30
0.0
 11
13.89238114188443
 21
6.476486620010811
 31
0.0
  0
LINE
  5
637B
330
6341
100
AcDbEntity
  8
0
  6
CONTINUOUS
 62
     0
100
AcDbLine
 10
13.88925614188443
 20
6.476486620010811
 30
0.0
 11
13.88925614188443
 21
6.476486620010811
 31
0.0
  0
LINE
  5
637C
330
6341
100
AcDbEntity
  8
0
  6
CONTINUOUS
 62
     0
100
AcDbLine
 10
13.88613114188443
 20
6.476486620010811
 30
0.0
 11
13.88613114188443
 21
6.476486620010811
 31
0.0
  0
LINE
  5
637D
330
6341
100
AcDbEntity
  8
0
  6
CONTINUOUS
 62
     0
100
AcDbLine
 10
13.88300614188443
 20
6.476486620010811
 30
0.0
 11
13.88300614188443
 21
6.476486620010811
 31
0.0
  0
LINE
  5
637E
330
6341
100
AcDbEntity
  8
0
  6
CONTINUOUS
 62
     0
100
AcDbLine
 10
13.92206864188443
 20
6.479611620010812
 30
0.0
 11
13.92206864188443
 21
6.479611620010812
 31
0.0
  0
LINE
  5
637F
330
6341
100
AcDbEntity
  8
0
  6
CONTINUOUS
 62
     0
100
AcDbLine
 10
13.91894364188443
 20
6.479611620010812
 30
0.0
 11
13.91894364188443
 21
6.479611620010812
 31
0.0
  0
LINE
  5
6380
330
6341
100
AcDbEntity
  8
0
  6
CONTINUOUS
 62
     0
100
AcDbLine
 10
13.91581864188443
 20
6.479611620010812
 30
0.0
 11
13.91581864188443
 21
6.479611620010812
 31
0.0
  0
LINE
  5
6381
330
6341
100
AcDbEntity
  8
0
  6
CONTINUOUS
 62
     0
100
AcDbLine
 10
13.91269364188443
 20
6.479611620010812
 30
0.0
 11
13.91269364188443
 21
6.479611620010812
 31
0.0
  0
LINE
  5
6382
330
6341
100
AcDbEntity
  8
0
  6
CONTINUOUS
 62
     0
100
AcDbLine
 10
13.90956864188443
 20
6.479611620010812
 30
0.0
 11
13.90956864188443
 21
6.479611620010812
 31
0.0
  0
LINE
  5
6383
330
6341
100
AcDbEntity
  8
0
  6
CONTINUOUS
 62
     0
100
AcDbLine
 10
13.90644364188443
 20
6.479611620010812
 30
0.0
 11
13.90644364188443
 21
6.479611620010812
 31
0.0
  0
LINE
  5
6384
330
6341
100
AcDbEntity
  8
0
  6
CONTINUOUS
 62
     0
100
AcDbLine
 10
13.90331864188443
 20
6.479611620010812
 30
0.0
 11
13.90331864188443
 21
6.479611620010812
 31
0.0
  0
LINE
  5
6385
330
6341
100
AcDbEntity
  8
0
  6
CONTINUOUS
 62
     0
100
AcDbLine
 10
13.90019364188443
 20
6.479611620010812
 30
0.0
 11
13.90019364188443
 21
6.479611620010812
 31
0.0
  0
LINE
  5
6386
330
6341
100
AcDbEntity
  8
0
  6
CONTINUOUS
 62
     0
100
AcDbLine
 10
13.89706864188443
 20
6.479611620010812
 30
0.0
 11
13.89706864188443
 21
6.479611620010812
 31
0.0
  0
LINE
  5
6387
330
6341
100
AcDbEntity
  8
0
  6
CONTINUOUS
 62
     0
100
AcDbLine
 10
13.89394364188443
 20
6.479611620010812
 30
0.0
 11
13.89394364188443
 21
6.479611620010812
 31
0.0
  0
LINE
  5
6388
330
6341
100
AcDbEntity
  8
0
  6
CONTINUOUS
 62
     0
100
AcDbLine
 10
13.89081864188443
 20
6.479611620010812
 30
0.0
 11
13.89081864188443
 21
6.479611620010812
 31
0.0
  0
LINE
  5
6389
330
6341
100
AcDbEntity
  8
0
  6
CONTINUOUS
 62
     0
100
AcDbLine
 10
13.88769364188442
 20
6.479611620010812
 30
0.0
 11
13.88769364188442
 21
6.479611620010812
 31
0.0
  0
LINE
  5
638A
330
6341
100
AcDbEntity
  8
0
  6
CONTINUOUS
 62
     0
100
AcDbLine
 10
13.88456864188442
 20
6.479611620010812
 30
0.0
 11
13.88456864188442
 21
6.479611620010812
 31
0.0
  0
LINE
  5
638B
330
6341
100
AcDbEntity
  8
0
  6
CONTINUOUS
 62
     0
100
AcDbLine
 10
13.92050614188443
 20
6.482736620010812
 30
0.0
 11
13.92050614188443
 21
6.482736620010812
 31
0.0
  0
LINE
  5
638C
330
6341
100
AcDbEntity
  8
0
  6
CONTINUOUS
 62
     0
100
AcDbLine
 10
13.91738114188443
 20
6.482736620010812
 30
0.0
 11
13.91738114188443
 21
6.482736620010812
 31
0.0
  0
LINE
  5
638D
330
6341
100
AcDbEntity
  8
0
  6
CONTINUOUS
 62
     0
100
AcDbLine
 10
13.91425614188443
 20
6.482736620010812
 30
0.0
 11
13.91425614188443
 21
6.482736620010812
 31
0.0
  0
LINE
  5
638E
330
6341
100
AcDbEntity
  8
0
  6
CONTINUOUS
 62
     0
100
AcDbLine
 10
13.91113114188443
 20
6.482736620010812
 30
0.0
 11
13.91113114188443
 21
6.482736620010812
 31
0.0
  0
LINE
  5
638F
330
6341
100
AcDbEntity
  8
0
  6
CONTINUOUS
 62
     0
100
AcDbLine
 10
13.90800614188443
 20
6.482736620010812
 30
0.0
 11
13.90800614188443
 21
6.482736620010812
 31
0.0
  0
LINE
  5
6390
330
6341
100
AcDbEntity
  8
0
  6
CONTINUOUS
 62
     0
100
AcDbLine
 10
13.90488114188443
 20
6.482736620010812
 30
0.0
 11
13.90488114188443
 21
6.482736620010812
 31
0.0
  0
LINE
  5
6391
330
6341
100
AcDbEntity
  8
0
  6
CONTINUOUS
 62
     0
100
AcDbLine
 10
13.90175614188443
 20
6.482736620010812
 30
0.0
 11
13.90175614188443
 21
6.482736620010812
 31
0.0
  0
LINE
  5
6392
330
6341
100
AcDbEntity
  8
0
  6
CONTINUOUS
 62
     0
100
AcDbLine
 10
13.89863114188443
 20
6.482736620010812
 30
0.0
 11
13.89863114188443
 21
6.482736620010812
 31
0.0
  0
LINE
  5
6393
330
6341
100
AcDbEntity
  8
0
  6
CONTINUOUS
 62
     0
100
AcDbLine
 10
13.89550614188443
 20
6.482736620010812
 30
0.0
 11
13.89550614188443
 21
6.482736620010812
 31
0.0
  0
LINE
  5
6394
330
6341
100
AcDbEntity
  8
0
  6
CONTINUOUS
 62
     0
100
AcDbLine
 10
13.89238114188443
 20
6.482736620010812
 30
0.0
 11
13.89238114188443
 21
6.482736620010812
 31
0.0
  0
LINE
  5
6395
330
6341
100
AcDbEntity
  8
0
  6
CONTINUOUS
 62
     0
100
AcDbLine
 10
13.88925614188443
 20
6.482736620010812
 30
0.0
 11
13.88925614188443
 21
6.482736620010812
 31
0.0
  0
LINE
  5
6396
330
6341
100
AcDbEntity
  8
0
  6
CONTINUOUS
 62
     0
100
AcDbLine
 10
13.88613114188443
 20
6.482736620010812
 30
0.0
 11
13.88613114188443
 21
6.482736620010812
 31
0.0
  0
LINE
  5
6397
330
6341
100
AcDbEntity
  8
0
  6
CONTINUOUS
 62
     0
100
AcDbLine
 10
13.88300614188443
 20
6.482736620010812
 30
0.0
 11
13.88300614188443
 21
6.482736620010812
 31
0.0
  0
LINE
  5
6398
330
6341
100
AcDbEntity
  8
0
  6
CONTINUOUS
 62
     0
100
AcDbLine
 10
13.91894364188443
 20
6.485861620010812
 30
0.0
 11
13.91894364188443
 21
6.485861620010812
 31
0.0
  0
LINE
  5
6399
330
6341
100
AcDbEntity
  8
0
  6
CONTINUOUS
 62
     0
100
AcDbLine
 10
13.91581864188443
 20
6.485861620010812
 30
0.0
 11
13.91581864188443
 21
6.485861620010812
 31
0.0
  0
LINE
  5
639A
330
6341
100
AcDbEntity
  8
0
  6
CONTINUOUS
 62
     0
100
AcDbLine
 10
13.91269364188443
 20
6.485861620010812
 30
0.0
 11
13.91269364188443
 21
6.485861620010812
 31
0.0
  0
LINE
  5
639B
330
6341
100
AcDbEntity
  8
0
  6
CONTINUOUS
 62
     0
100
AcDbLine
 10
13.90956864188443
 20
6.485861620010812
 30
0.0
 11
13.90956864188443
 21
6.485861620010812
 31
0.0
  0
LINE
  5
639C
330
6341
100
AcDbEntity
  8
0
  6
CONTINUOUS
 62
     0
100
AcDbLine
 10
13.90644364188443
 20
6.485861620010812
 30
0.0
 11
13.90644364188443
 21
6.485861620010812
 31
0.0
  0
LINE
  5
639D
330
6341
100
AcDbEntity
  8
0
  6
CONTINUOUS
 62
     0
100
AcDbLine
 10
13.90331864188443
 20
6.485861620010812
 30
0.0
 11
13.90331864188443
 21
6.485861620010812
 31
0.0
  0
LINE
  5
639E
330
6341
100
AcDbEntity
  8
0
  6
CONTINUOUS
 62
     0
100
AcDbLine
 10
13.90019364188443
 20
6.485861620010812
 30
0.0
 11
13.90019364188443
 21
6.485861620010812
 31
0.0
  0
LINE
  5
639F
330
6341
100
AcDbEntity
  8
0
  6
CONTINUOUS
 62
     0
100
AcDbLine
 10
13.89706864188443
 20
6.485861620010812
 30
0.0
 11
13.89706864188443
 21
6.485861620010812
 31
0.0
  0
LINE
  5
63A0
330
6341
100
AcDbEntity
  8
0
  6
CONTINUOUS
 62
     0
100
AcDbLine
 10
13.89394364188443
 20
6.485861620010812
 30
0.0
 11
13.89394364188443
 21
6.485861620010812
 31
0.0
  0
LINE
  5
63A1
330
6341
100
AcDbEntity
  8
0
  6
CONTINUOUS
 62
     0
100
AcDbLine
 10
13.89081864188443
 20
6.485861620010812
 30
0.0
 11
13.89081864188443
 21
6.485861620010812
 31
0.0
  0
LINE
  5
63A2
330
6341
100
AcDbEntity
  8
0
  6
CONTINUOUS
 62
     0
100
AcDbLine
 10
13.88769364188443
 20
6.485861620010812
 30
0.0
 11
13.88769364188443
 21
6.485861620010812
 31
0.0
  0
LINE
  5
63A3
330
6341
100
AcDbEntity
  8
0
  6
CONTINUOUS
 62
     0
100
AcDbLine
 10
13.88456864188443
 20
6.485861620010812
 30
0.0
 11
13.88456864188443
 21
6.485861620010812
 31
0.0
  0
LINE
  5
63A4
330
6341
100
AcDbEntity
  8
0
  6
CONTINUOUS
 62
     0
100
AcDbLine
 10
13.91738114188443
 20
6.488986620010812
 30
0.0
 11
13.91738114188443
 21
6.488986620010812
 31
0.0
  0
LINE
  5
63A5
330
6341
100
AcDbEntity
  8
0
  6
CONTINUOUS
 62
     0
100
AcDbLine
 10
13.91425614188443
 20
6.488986620010812
 30
0.0
 11
13.91425614188443
 21
6.488986620010812
 31
0.0
  0
LINE
  5
63A6
330
6341
100
AcDbEntity
  8
0
  6
CONTINUOUS
 62
     0
100
AcDbLine
 10
13.91113114188443
 20
6.488986620010812
 30
0.0
 11
13.91113114188443
 21
6.488986620010812
 31
0.0
  0
LINE
  5
63A7
330
6341
100
AcDbEntity
  8
0
  6
CONTINUOUS
 62
     0
100
AcDbLine
 10
13.90800614188443
 20
6.488986620010812
 30
0.0
 11
13.90800614188443
 21
6.488986620010812
 31
0.0
  0
LINE
  5
63A8
330
6341
100
AcDbEntity
  8
0
  6
CONTINUOUS
 62
     0
100
AcDbLine
 10
13.90488114188443
 20
6.488986620010812
 30
0.0
 11
13.90488114188443
 21
6.488986620010812
 31
0.0
  0
LINE
  5
63A9
330
6341
100
AcDbEntity
  8
0
  6
CONTINUOUS
 62
     0
100
AcDbLine
 10
13.90175614188443
 20
6.488986620010812
 30
0.0
 11
13.90175614188443
 21
6.488986620010812
 31
0.0
  0
LINE
  5
63AA
330
6341
100
AcDbEntity
  8
0
  6
CONTINUOUS
 62
     0
100
AcDbLine
 10
13.89863114188443
 20
6.488986620010812
 30
0.0
 11
13.89863114188443
 21
6.488986620010812
 31
0.0
  0
LINE
  5
63AB
330
6341
100
AcDbEntity
  8
0
  6
CONTINUOUS
 62
     0
100
AcDbLine
 10
13.89550614188443
 20
6.488986620010812
 30
0.0
 11
13.89550614188443
 21
6.488986620010812
 31
0.0
  0
LINE
  5
63AC
330
6341
100
AcDbEntity
  8
0
  6
CONTINUOUS
 62
     0
100
AcDbLine
 10
13.89238114188443
 20
6.488986620010812
 30
0.0
 11
13.89238114188443
 21
6.488986620010812
 31
0.0
  0
LINE
  5
63AD
330
6341
100
AcDbEntity
  8
0
  6
CONTINUOUS
 62
     0
100
AcDbLine
 10
13.88925614188443
 20
6.488986620010812
 30
0.0
 11
13.88925614188443
 21
6.488986620010812
 31
0.0
  0
LINE
  5
63AE
330
6341
100
AcDbEntity
  8
0
  6
CONTINUOUS
 62
     0
100
AcDbLine
 10
13.88613114188443
 20
6.488986620010812
 30
0.0
 11
13.88613114188443
 21
6.488986620010812
 31
0.0
  0
LINE
  5
63AF
330
6341
100
AcDbEntity
  8
0
  6
CONTINUOUS
 62
     0
100
AcDbLine
 10
13.91581864188443
 20
6.492111620010811
 30
0.0
 11
13.91581864188443
 21
6.492111620010811
 31
0.0
  0
LINE
  5
63B0
330
6341
100
AcDbEntity
  8
0
  6
CONTINUOUS
 62
     0
100
AcDbLine
 10
13.91269364188443
 20
6.492111620010811
 30
0.0
 11
13.91269364188443
 21
6.492111620010811
 31
0.0
  0
LINE
  5
63B1
330
6341
100
AcDbEntity
  8
0
  6
CONTINUOUS
 62
     0
100
AcDbLine
 10
13.90956864188443
 20
6.492111620010811
 30
0.0
 11
13.90956864188443
 21
6.492111620010811
 31
0.0
  0
LINE
  5
63B2
330
6341
100
AcDbEntity
  8
0
  6
CONTINUOUS
 62
     0
100
AcDbLine
 10
13.90644364188443
 20
6.492111620010811
 30
0.0
 11
13.90644364188443
 21
6.492111620010811
 31
0.0
  0
LINE
  5
63B3
330
6341
100
AcDbEntity
  8
0
  6
CONTINUOUS
 62
     0
100
AcDbLine
 10
13.90331864188443
 20
6.492111620010811
 30
0.0
 11
13.90331864188443
 21
6.492111620010811
 31
0.0
  0
LINE
  5
63B4
330
6341
100
AcDbEntity
  8
0
  6
CONTINUOUS
 62
     0
100
AcDbLine
 10
13.90019364188443
 20
6.492111620010811
 30
0.0
 11
13.90019364188443
 21
6.492111620010811
 31
0.0
  0
LINE
  5
63B5
330
6341
100
AcDbEntity
  8
0
  6
CONTINUOUS
 62
     0
100
AcDbLine
 10
13.89706864188443
 20
6.492111620010811
 30
0.0
 11
13.89706864188443
 21
6.492111620010811
 31
0.0
  0
LINE
  5
63B6
330
6341
100
AcDbEntity
  8
0
  6
CONTINUOUS
 62
     0
100
AcDbLine
 10
13.89394364188443
 20
6.492111620010811
 30
0.0
 11
13.89394364188443
 21
6.492111620010811
 31
0.0
  0
LINE
  5
63B7
330
6341
100
AcDbEntity
  8
0
  6
CONTINUOUS
 62
     0
100
AcDbLine
 10
13.89081864188443
 20
6.492111620010811
 30
0.0
 11
13.89081864188443
 21
6.492111620010811
 31
0.0
  0
LINE
  5
63B8
330
6341
100
AcDbEntity
  8
0
  6
CONTINUOUS
 62
     0
100
AcDbLine
 10
13.88769364188443
 20
6.492111620010811
 30
0.0
 11
13.88769364188443
 21
6.492111620010811
 31
0.0
  0
LINE
  5
63B9
330
6341
100
AcDbEntity
  8
0
  6
CONTINUOUS
 62
     0
100
AcDbLine
 10
13.91113114188443
 20
6.495236620010812
 30
0.0
 11
13.91113114188443
 21
6.495236620010812
 31
0.0
  0
LINE
  5
63BA
330
6341
100
AcDbEntity
  8
0
  6
CONTINUOUS
 62
     0
100
AcDbLine
 10
13.90800614188443
 20
6.495236620010812
 30
0.0
 11
13.90800614188443
 21
6.495236620010812
 31
0.0
  0
LINE
  5
63BB
330
6341
100
AcDbEntity
  8
0
  6
CONTINUOUS
 62
     0
100
AcDbLine
 10
13.90488114188443
 20
6.495236620010812
 30
0.0
 11
13.90488114188443
 21
6.495236620010812
 31
0.0
  0
LINE
  5
63BC
330
6341
100
AcDbEntity
  8
0
  6
CONTINUOUS
 62
     0
100
AcDbLine
 10
13.90175614188443
 20
6.495236620010812
 30
0.0
 11
13.90175614188443
 21
6.495236620010812
 31
0.0
  0
LINE
  5
63BD
330
6341
100
AcDbEntity
  8
0
  6
CONTINUOUS
 62
     0
100
AcDbLine
 10
13.89863114188442
 20
6.495236620010812
 30
0.0
 11
13.89863114188442
 21
6.495236620010812
 31
0.0
  0
LINE
  5
63BE
330
6341
100
AcDbEntity
  8
0
  6
CONTINUOUS
 62
     0
100
AcDbLine
 10
13.89550614188443
 20
6.495236620010812
 30
0.0
 11
13.89550614188443
 21
6.495236620010812
 31
0.0
  0
LINE
  5
63BF
330
6341
100
AcDbEntity
  8
0
  6
CONTINUOUS
 62
     0
100
AcDbLine
 10
13.89238114188442
 20
6.495236620010812
 30
0.0
 11
13.89238114188442
 21
6.495236620010812
 31
0.0
  0
LINE
  5
63C0
330
6341
100
AcDbEntity
  8
0
  6
CONTINUOUS
 62
     0
100
AcDbLine
 10
13.90644364188443
 20
6.498361620010812
 30
0.0
 11
13.90644364188443
 21
6.498361620010812
 31
0.0
  0
LINE
  5
63C1
330
6341
100
AcDbEntity
  8
0
  6
CONTINUOUS
 62
     0
100
AcDbLine
 10
13.90331864188443
 20
6.498361620010812
 30
0.0
 11
13.90331864188443
 21
6.498361620010812
 31
0.0
  0
LINE
  5
63C2
330
6341
100
AcDbEntity
  8
0
  6
CONTINUOUS
 62
     0
100
AcDbLine
 10
13.90019364188443
 20
6.498361620010812
 30
0.0
 11
13.90019364188443
 21
6.498361620010812
 31
0.0
  0
LINE
  5
63C3
330
6341
100
AcDbEntity
  8
0
  6
CONTINUOUS
 62
     0
100
AcDbLine
 10
13.89706864188442
 20
6.498361620010812
 30
0.0
 11
13.89706864188442
 21
6.498361620010812
 31
0.0
  0
ENDBLK
  5
63C5
330
6341
100
AcDbEntity
  8
0
100
AcDbBlockEnd
  0
ENDSEC
  0
SECTION
  2
ENTITIES
  0
TEXT
  5
119
330
18
100
AcDbEntity
  8
D1
100
AcDbText
 10
13.09499999999999
 20
1.41
 30
0.0
 40
0.1
  1
   
100
AcDbText
  0
TEXT
  5
121
330
18
100
AcDbEntity
  8
D1
100
AcDbText
 10
13.935
 20
0.5400000000000005
 30
0.0
 40
0.1099999999999999
  1
    
100
AcDbText
  0
TEXT
  5
122
330
18
100
AcDbEntity
  8
D1
100
AcDbText
 10
14.97499999999999
 20
1.375
 30
0.0
 40
0.1
  1
 
100
AcDbText
  0
INSERT
  5
B99
330
18
100
AcDbEntity
  8
S2
100
AcDbBlockReference
  2
AME_NIL
 10
18.01494614176086
 20
14.67117853937151
 30
0.0
  0
INSERT
  5
B9A
330
18
100
AcDbEntity
  8
S2
100
AcDbBlockReference
  2
AME_SOL
 10
18.01494614176086
 20
14.67117853937151
 30
0.0
1001
AME_SOL
1000
R2.1_c2
1000
AME2
1000
sq cm
1070
     3
1070
     0
1070
     3
1000
wire
1040
45.0
1000
U
1040
1.0
1000
cm
1000
gm
1000
MILD_STEEL
1070
    25
1000
CSG
1070
     1
1070
     3
1070
     3
1070
     3
1070
     0
1000
cu cm
1070
     1
1070
     0
1005
0
  0
MTEXT
  5
5512
330
18
100
AcDbEntity
  8
D1
  6
CONTINUOUS
100
AcDbMText
 10
6.007481415616639
 20
4.98365142100042
 30
0.0
 40
0.13
 41
0.0
 71
     6
 72
     1
  1

1001
ACAD
1000
MTEXTBEGIN
1070
    73
1070
     1
1070
    44
1040
1.0
1070
    74
1070
     0
1000
MTEXTEND
  0
POLYLINE
  5
5907
330
18
100
AcDbEntity
  8
BORDER
  6
CONTINUOUS
100
AcDb2dPolyline
 66
     1
 10
0.0
 20
0.0
 30
0.0
 70
     1
 40
0.03
 41
0.03
  0
VERTEX
  5
6241
330
5907
100
AcDbEntity
  8
BORDER
  6
CONTINUOUS
100
AcDbVertex
100
AcDb2dVertex
 10
0.2033186418844295
 20
0.4921116272831716
 30
0.0
  0
VERTEX
  5
6242
330
5907
100
AcDbEntity
  8
BORDER
  6
CONTINUOUS
100
AcDbVertex
100
AcDb2dVertex
 10
17.20331864188443
 20
0.4921116272831716
 30
0.0
  0
VERTEX
  5
6243
330
5907
100
AcDbEntity
  8
BORDER
  6
CONTINUOUS
100
AcDbVertex
100
AcDb2dVertex
 10
17.20331864188443
 20
11.49211162728317
 30
0.0
  0
VERTEX
  5
6244
330
5907
100
AcDbEntity
  8
BORDER
  6
CONTINUOUS
100
AcDbVertex
100
AcDb2dVertex
 10
0.2033186418844295
 20
11.49211162728317
 30
0.0
  0
SEQEND
  5
6245
330
5907
100
AcDbEntity
  8
BORDER
  6
CONTINUOUS
  0
POLYLINE
  5
59EC
330
18
100
AcDbEntity
  8
BORDER
100
AcDb2dPolyline
 66
     1
 10
0.0
 20
0.0
 30
0.0
 39
0.0108
 40
0.0144
 41
0.0144
  0
VERTEX
  5
6246
330
59EC
100
AcDbEntity
  8
BORDER
100
AcDbVertex
100
AcDb2dVertex
 10
16.13808983146224
 20
1.06111962728317
 30
0.0
  0
VERTEX
  5
6247
330
59EC
100
AcDbEntity
  8
BORDER
100
AcDbVertex
100
AcDb2dVertex
 10
16.13808983146224
 20
0.7816156272831709
 30
0.0
  0
SEQEND
  5
6248
330
59EC
100
AcDbEntity
  8
BORDER
  0
POLYLINE
  5
59ED
330
18
100
AcDbEntity
  8
BORDER
100
AcDb2dPolyline
 66
     1
 10
0.0
 20
0.0
 30
0.0
 39
0.0108
 40
0.0144
 41
0.0144
  0
VERTEX
  5
6249
330
59ED
100
AcDbEntity
  8
BORDER
100
AcDbVertex
100
AcDb2dVertex
 10
15.3078441832334
 20
1.06111962728317
 30
0.0
  0
VERTEX
  5
624A
330
59ED
100
AcDbEntity
  8
BORDER
100
AcDbVertex
100
AcDb2dVertex
 10
15.3078441832334
 20
0.4838757627084576
 30
0.0
  0
SEQEND
  5
624B
330
59ED
100
AcDbEntity
  8
BORDER
  0
POLYLINE
  5
59EE
330
18
100
AcDbEntity
  8
BORDER
100
AcDb2dPolyline
 66
     1
 10
0.0
 20
0.0
 30
0.0
 39
0.0108
 40
0.0144
 41
0.0144
  0
VERTEX
  5
624C
330
59EE
100
AcDbEntity
  8
BORDER
100
AcDbVertex
100
AcDb2dVertex
 10
17.20913868652081
 20
0.7816156272831709
 30
0.0
  0
VERTEX
  5
624D
330
59EE
100
AcDbEntity
  8
BORDER
100
AcDbVertex
100
AcDb2dVertex
 10
13.93243864188443
 20
0.7816156272831709
 30
0.0
  0
SEQEND
  5
624E
330
59EE
100
AcDbEntity
  8
BORDER
  0
POLYLINE
  5
59EF
330
18
100
AcDbEntity
  8
BORDER
100
AcDb2dPolyline
 66
     1
 10
0.0
 20
0.0
 30
0.0
 39
0.0108
 40
0.0144
 41
0.0144
  0
VERTEX
  5
624F
330
59EF
100
AcDbEntity
  8
BORDER
100
AcDbVertex
100
AcDb2dVertex
 10
17.21349565830657
 20
1.06111962728317
 30
0.0
  0
VERTEX
  5
6250
330
59EF
100
AcDbEntity
  8
BORDER
100
AcDbVertex
100
AcDb2dVertex
 10
13.93243864188443
 20
1.06111962728317
 30
0.0
  0
SEQEND
  5
6251
330
59EF
100
AcDbEntity
  8
BORDER
  0
POLYLINE
  5
59F0
330
18
100
AcDbEntity
  8
BORDER
100
AcDb2dPolyline
 66
     1
 10
0.0
 20
0.0
 30
0.0
 39
0.0108
 40
0.0144
 41
0.0144
  0
VERTEX
  5
6252
330
59F0
100
AcDbEntity
  8
BORDER
100
AcDbVertex
100
AcDb2dVertex
 10
13.93243864188443
 20
1.34062362728317
 30
0.0
  0
VERTEX
  5
6253
330
59F0
100
AcDbEntity
  8
BORDER
100
AcDbVertex
100
AcDb2dVertex
 10
17.21349565830657
 20
1.34062362728317
 30
0.0
  0
SEQEND
  5
6254
330
59F0
100
AcDbEntity
  8
BORDER
  0
POLYLINE
  5
59F1
330
18
100
AcDbEntity
  8
BORDER
100
AcDb2dPolyline
 66
     1
 10
0.0
 20
0.0
 30
0.0
 39
0.0108
 40
0.0144
 41
0.0144
  0
VERTEX
  5
6255
330
59F1
100
AcDbEntity
  8
BORDER
100
AcDbVertex
100
AcDb2dVertex
 10
13.93243864188443
 20
1.620127627283171
 30
0.0
  0
VERTEX
  5
6256
330
59F1
100
AcDbEntity
  8
BORDER
100
AcDbVertex
100
AcDb2dVertex
 10
17.19331864188443
 20
1.620127627283171
 30
0.0
  0
SEQEND
  5
6257
330
59F1
100
AcDbEntity
  8
BORDER
  0
POLYLINE
  5
59F2
330
18
100
AcDbEntity
  8
BORDER
100
AcDb2dPolyline
 66
     1
 10
0.0
 20
0.0
 30
0.0
 39
0.0108
 40
0.0144
 41
0.0144
  0
VERTEX
  5
6258
330
59F2
100
AcDbEntity
  8
BORDER
100
AcDbVertex
100
AcDb2dVertex
 10
17.19331864188443
 20
1.778273835643592
 30
0.0
  0
VERTEX
  5
6259
330
59F2
100
AcDbEntity
  8
BORDER
100
AcDbVertex
100
AcDb2dVertex
 10
13.93243864188443
 20
1.778273835643592
 30
0.0
  0
SEQEND
  5
625A
330
59F2
100
AcDbEntity
  8
BORDER
  0
POLYLINE
  5
59F3
330
18
100
AcDbEntity
  8
BORDER
100
AcDb2dPolyline
 66
     1
 10
0.0
 20
0.0
 30
0.0
 39
0.0108
 40
0.0144
 41
0.0144
  0
VERTEX
  5
625B
330
59F3
100
AcDbEntity
  8
BORDER
100
AcDbVertex
100
AcDb2dVertex
 10
13.93243864188443
 20
1.936673835643592
 30
0.0
  0
VERTEX
  5
625C
330
59F3
100
AcDbEntity
  8
BORDER
100
AcDbVertex
100
AcDb2dVertex
 10
17.19331864188443
 20
1.936673835643592
 30
0.0
  0
SEQEND
  5
625D
330
59F3
100
AcDbEntity
  8
BORDER
  0
LINE
  5
59F4
330
18
100
AcDbEntity
  8
BORDER
100
AcDbLine
 39
0.0108
 10
13.93243864188443
 20
1.936673835643592
 30
0.0
 11
17.19331864188442
 21
1.936673835643592
 31
0.0
  0
LINE
  5
59F5
330
18
100
AcDbEntity
  8
BORDER
100
AcDbLine
 39
0.0108
 10
13.93243864188443
 20
1.620127627283171
 30
0.0
 11
17.19331864188442
 21
1.620127627283171
 31
0.0
  0
LINE
  5
59F6
330
18
100
AcDbEntity
  8
BORDER
100
AcDbLine
 39
0.0108
 10
13.93243864188443
 20
1.34062362728317
 30
0.0
 11
17.21349565830658
 21
1.34062362728317
 31
0.0
  0
LINE
  5
59F7
330
18
100
AcDbEntity
  8
BORDER
100
AcDbLine
 39
0.0108
 10
13.93243864188443
 20
1.06111962728317
 30
0.0
 11
17.21349565830658
 21
1.06111962728317
 31
0.0
  0
LINE
  5
59F8
330
18
100
AcDbEntity
  8
BORDER
100
AcDbLine
 39
0.0108
 10
13.93243864188443
 20
0.7816156272831709
 30
0.0
 11
17.20913868652081
 21
0.7816156272831709
 31
0.0
  0
LINE
  5
59F9
330
18
100
AcDbEntity
  8
BORDER
100
AcDbLine
 39
0.0108
 10
13.93243864188443
 20
1.778273835643592
 30
0.0
 11
17.19331864188442
 21
1.778273835643592
 31
0.0
  0
TRACE
  5
59FA
330
18
100
AcDbEntity
  8
BORDER
100
AcDbTrace
 10
17.19331864188442
 20
2.206861035643592
 30
0.0
 11
17.19331864188442
 21
2.225494635643592
 31
0.0
 12
13.93709704188443
 22
2.206861035643592
 32
0.0
 13
13.93709704188443
 23
2.225494635643592
 33
0.0
 39
0.0108
  0
TEXT
  5
59FB
330
18
100
AcDbEntity
  8
BORDER
100
AcDbText
 10
16.17667174762063
 20
0.9635309474587469
 30
0.0
 40
0.0576
  1
DRAWING SCALE
100
AcDbText
  0
TEXT
  5
59FC
330
18
100
AcDbEntity
  8
BORDER
100
AcDbText
 10
15.85612215094673
 20
1.52808119330731
 30
0.0
 40
0.0576
  1
APPROVED
100
AcDbText
  0
TEXT
  5
59FE
330
18
100
AcDbEntity
  8
BORDER
100
AcDbText
 10
14.01628984188443
 20
1.815555435643592
 30
0.0
 40
0.0652176
  1
TOL: X.XXX=+/-0.005 X.XX=+/-0.010 ANGULAR +/-30'
100
AcDbText
  0
TRACE
  5
59FF
330
18
100
AcDbEntity
  8
BORDER
100
AcDbTrace
 10
17.19331864188442
 20
2.565557835643591
 30
0.0
 11
17.19331864188442
 21
2.612141835643591
 31
0.0
 12
13.95573064188443
 22
2.565557835643591
 32
0.0
 13
13.90914664188443
 23
2.612141835643591
 33
0.0
  0
TEXT
  5
5A00
330
18
100
AcDbEntity
  8
D1
100
AcDbText
 10
14.55482970401526
 20
2.016832689200454
 30
-0.1677024
 40
0.08
  1
HIGH SPEED Si DETECTOR
  7
ARIALBLACK
100
AcDbText
  0
TEXT
  5
5A01
330
18
100
AcDbEntity
  8
D1
100
AcDbText
 10
14.5316413308064
 20
1.126515888656993
 30
-0.1677024
 40
0.08
  1
DET210
  7
ARIALBLACK
100
AcDbText
  0
TEXT
  5
5A02
330
18
100
AcDbEntity
  8
BORDER
100
AcDbText
 10
14.0028724779958
 20
1.662780269116971
 30
-0.0074763815538067
 40
0.0623101182846307
  1
SURF. FINISH: 32 MICROINCHES UNLESS OTHERWISE NOTED
100
AcDbText
  0
POLYLINE
  5
5A03
330
18
100
AcDbEntity
  8
BORDER
100
AcDb2dPolyline
 66
     1
 10
0.0
 20
0.0
 30
-0.1677024
 39
0.0108
 40
0.0144
 41
0.0144
  0
VERTEX
  5
625E
330
5A03
100
AcDbEntity
  8
BORDER
100
AcDbVertex
100
AcDb2dVertex
 10
14.9920749093331
 20
1.06111962728317
 30
-0.1677024
  0
VERTEX
  5
625F
330
5A03
100
AcDbEntity
  8
BORDER
100
AcDbVertex
100
AcDb2dVertex
 10
14.9920749093331
 20
0.7816156272831709
 30
-0.1677024
  0
SEQEND
  5
6260
330
5A03
100
AcDbEntity
  8
BORDER
  0
POLYLINE
  5
5A04
330
18
100
AcDbEntity
  8
BORDER
100
AcDb2dPolyline
 66
     1
 10
0.0
 20
0.0
 30
-0.1677024
 39
0.0108
 40
0.0144
 41
0.0144
  0
VERTEX
  5
6261
330
5A04
100
AcDbEntity
  8
BORDER
100
AcDbVertex
100
AcDb2dVertex
 10
14.72044624632172
 20
1.06111962728317
 30
-0.1677024
  0
VERTEX
  5
6262
330
5A04
100
AcDbEntity
  8
BORDER
100
AcDbVertex
100
AcDb2dVertex
 10
14.72044624632172
 20
0.7816156272831709
 30
-0.1677024
  0
SEQEND
  5
6263
330
5A04
100
AcDbEntity
  8
BORDER
  0
POLYLINE
  5
5A05
330
18
100
AcDbEntity
  8
BORDER
100
AcDb2dPolyline
 66
     1
 10
0.0
 20
0.0
 30
-0.1677024
 39
0.0108
 40
0.0144
 41
0.0144
  0
VERTEX
  5
6264
330
5A05
100
AcDbEntity
  8
BORDER
100
AcDbVertex
100
AcDb2dVertex
 10
14.95804624632172
 20
1.620127627283171
 30
-0.1677024
  0
VERTEX
  5
6265
330
5A05
100
AcDbEntity
  8
BORDER
100
AcDbVertex
100
AcDb2dVertex
 10
14.95804624632172
 20
1.34062362728317
 30
-0.1677024
  0
SEQEND
  5
6266
330
5A05
100
AcDbEntity
  8
BORDER
  0
POLYLINE
  5
5A06
330
18
100
AcDbEntity
  8
BORDER
100
AcDb2dPolyline
 66
     1
 10
0.0
 20
0.0
 30
-0.1677024
 39
0.0108
 40
0.0144
 41
0.0144
  0
VERTEX
  5
6267
330
5A06
100
AcDbEntity
  8
BORDER
100
AcDbVertex
100
AcDb2dVertex
 10
15.76300624632172
 20
1.620127627283171
 30
-0.1677024
  0
VERTEX
  5
6268
330
5A06
100
AcDbEntity
  8
BORDER
100
AcDbVertex
100
AcDb2dVertex
 10
15.76300624632172
 20
1.34062362728317
 30
-0.1677024
  0
SEQEND
  5
6269
330
5A06
100
AcDbEntity
  8
BORDER
  0
LINE
  5
5A07
330
18
100
AcDbEntity
  8
BORDER
100
AcDbLine
 39
0.0108
 10
14.9920749093331
 20
1.06111962728317
 30
-0.1677024
 11
14.9920749093331
 21
0.7816156272831709
 31
-0.1677024
  0
LINE
  5
5A08
330
18
100
AcDbEntity
  8
BORDER
100
AcDbLine
 39
0.0108
 10
14.95804624632172
 20
1.34062362728317
 30
-0.1677024
 11
14.95804624632172
 21
1.620127627283171
 31
-0.1677024
  0
LINE
  5
5A09
330
18
100
AcDbEntity
  8
BORDER
100
AcDbLine
 39
0.0108
 10
15.76300624632172
 20
1.34062362728317
 30
-0.1677024
 11
15.76300624632172
 21
1.620127627283171
 31
-0.1677024
  0
LINE
  5
5A0A
330
18
100
AcDbEntity
  8
BORDER
100
AcDbLine
 10
14.72044624632172
 20
0.7816156272831709
 30
-0.1677024
 11
14.72044624632172
 21
1.06111962728317
 31
-0.1677024
  0
TEXT
  5
5A0B
330
18
100
AcDbEntity
  8
D1
100
AcDbText
 10
14.15216260790222
 20
0.5431888808400345
 30
-0.1677024
 40
0.08
  1
2201-E01
  7
ARIALBLACK
100
AcDbText
  0
TEXT
  5
5A0C
330
18
100
AcDbEntity
  8
D1
100
AcDbText
 10
13.99931515502297
 20
0.8318250611523794
 30
0.0
 40
0.08
  1
10/10/97
  7
ARIALBLACK
100
AcDbText
  0
TEXT
  5
5A0D
330
18
100
AcDbEntity
  8
D1
100
AcDbText
 10
14.26020730202883
 20
1.382872846864173
 30
-0.1677024
 40
0.08
  1
EC
  7
ARIALBLACK
100
AcDbText
  0
TEXT
  5
5A0E
330
18
100
AcDbEntity
  8
D1
100
AcDbText
 10
14.8305004934966
 20
0.8318250611523794
 30
0.0
 40
0.08
  1
C
  7
ARIALBLACK
100
AcDbText
  0
TEXT
  5
5A0F
330
18
100
AcDbEntity
  8
BORDER
100
AcDbText
 10
15.04861222247164
 20
0.9649707167954256
 30
-0.1677024
 40
0.0576
  1
SIZE
 72
     1
 11
15.14461222247164
 21
0.9649707167954256
 31
-0.1677024
100
AcDbText
  0
TEXT
  5
5A10
330
18
100
AcDbEntity
  8
D1
100
AcDbText
 10
15.10791786153179
 20
0.8318250611523794
 30
-0.0000000000000001
 40
0.08
  1
B
  7
ARIALBLACK
 72
     1
 11
15.14518934857135
 21
0.8318250611523794
 31
-0.0000000000000001
100
AcDbText
  0
TEXT
  5
5A11
330
18
100
AcDbEntity
  8
D1
100
AcDbText
 10
15.52810589062972
 20
0.8318250611523794
 30
0.0
 40
0.08
  1
1
  7
ARIALBLACK
100
AcDbText
  0
TEXT
  5
5A12
330
18
100
AcDbEntity
  8
D1
100
AcDbText
 10
15.31386259023235
 20
1.382872846864173
 30
-0.1677024
 40
0.08
  1
EC
  7
ARIALBLACK
100
AcDbText
  0
TEXT
  5
5A13
330
18
100
AcDbEntity
  8
D1
100
AcDbText
 10
15.88090589062971
 20
0.8318250611523794
 30
0.0
 40
0.08
  1
1
  7
ARIALBLACK
100
AcDbText
  0
TRACE
  5
5A14
330
18
100
AcDbEntity
  8
BORDER
100
AcDbTrace
 10
13.95573064188443
 20
2.566061402659054
 30
0.0
 11
13.90914664188443
 21
2.612645402659055
 31
0.0
 12
13.95573064188443
 22
0.5021116272831714
 32
0.0
 13
13.90914664188443
 23
0.5021116272831714
 33
0.0
  0
LINE
  5
5A15
330
18
100
AcDbEntity
  8
BORDER
100
AcDbLine
 10
16.13808983146224
 20
1.06111962728317
 30
0.0
 11
16.13808983146224
 21
0.7816156272831709
 31
0.0
  0
LINE
  5
5A16
330
18
100
AcDbEntity
  8
BORDER
100
AcDbLine
 10
15.3078441832334
 20
0.4838757627084576
 30
0.0
 11
15.3078441832334
 21
1.06111962728317
 31
0.0
  0
TEXT
  5
5A17
330
18
100
AcDbEntity
  8
BORDER
100
AcDbText
 10
14.02094824188443
 20
0.6884476272831708
 30
0.0
 40
0.0652176
  1
DWG NO.
100
AcDbText
  0
TEXT
  5
5A18
330
18
100
AcDbEntity
  8
BORDER
100
AcDbText
 10
15.36735528000759
 20
0.6884476272831708
 30
0.0
 40
0.0652176
  1
PART NO.
100
AcDbText
  0
TEXT
  5
5A19
330
18
100
AcDbEntity
  8
BORDER
100
AcDbText
 10
14.9794930726573
 20
1.52808119330731
 30
0.0
 40
0.0576
  1
ENGINEER
100
AcDbText
  0
TEXT
  5
5A1A
330
18
100
AcDbEntity
  8
BORDER
100
AcDbText
 10
14.01628984188443
 20
1.238560686607382
 30
0.0
 40
0.0652176
  1
MATERIAL
100
AcDbText
  0
TEXT
  5
5A1B
330
18
100
AcDbEntity
  8
BORDER
100
AcDbText
 10
14.02094824188442
 20
0.9679516272831708
 30
0.0
 40
0.0576
  1
DATE
100
AcDbText
  0
TEXT
  5
5A1C
330
18
100
AcDbEntity
  8
BORDER
100
AcDbText
 10
14.01008523453413
 20
1.52808119330731
 30
0.0
 40
0.0576
  1
DRAWN
100
AcDbText
  0
TEXT
  5
5A1D
330
18
100
AcDbEntity
  8
BORDER
100
AcDbText
 10
14.7502000800076
 20
0.9632932272831705
 30
0.0
 40
0.0576
  1
REV
100
AcDbText
  0
TEXT
  5
5A1E
330
18
100
AcDbEntity
  8
BORDER
100
AcDbText
 10
14.01628984188443
 20
2.118351435643592
 30
0.0
 40
0.0652176
  1
TITLE
100
AcDbText
  0
TEXT
  5
5A1F
330
18
100
AcDbEntity
  8
BORDER
100
AcDbText
 10
15.34569504774953
 20
0.9635309474587469
 30
0.0
 40
0.0576
  1
SHEET
100
AcDbText
  0
TEXT
  5
5A20
330
18
100
AcDbEntity
  8
BORDER
100
AcDbText
 10
15.66511964715972
 20
0.8523412272831709
 30
0.0
 40
0.0652176
  1
OF
100
AcDbText
  0
TEXT
  5
5A21
330
18
100
AcDbEntity
  8
D1
100
AcDbText
 10
16.3747540353002
 20
0.8318250611523794
 30
0.0
 40
0.08
  1
1.5" = 1"
  7
ARIALBLACK
100
AcDbText
  0
TEXT
  5
5A22
330
18
100
AcDbEntity
  8
BORDER
100
AcDbText
 10
16.06432964945025
 20
2.423164986131337
 30
0.1677024
 40
0.104814
  1
PO BOX 366
100
AcDbText
  0
TEXT
  5
5A23
330
18
100
AcDbEntity
  8
BORDER
100
AcDbText
 10
16.06432964945025
 20
2.248474986131337
 30
0.1677024
 40
0.104814
  1
NEWTON NJ
100
AcDbText
  0
POLYLINE
  5
5A24
330
18
100
AcDbEntity
  8
BORDER
100
AcDb2dPolyline
 66
     1
 10
0.0
 20
0.0
 30
0.1677024
 40
0.00493045056
 41
0.00493045056
  0
VERTEX
  5
626A
330
5A24
100
AcDbEntity
  8
BORDER
100
AcDbVertex
100
AcDb2dVertex
 10
15.91654691965104
 20
2.462067105502534
 30
0.1677024
 42
0.1521907920671271
  0
VERTEX
  5
626B
330
5A24
100
AcDbEntity
  8
BORDER
100
AcDbVertex
100
AcDb2dVertex
 10
15.91225178861954
 20
2.496806460126451
 30
0.1677024
 42
0.1521907920671271
  0
SEQEND
  5
626C
330
5A24
100
AcDbEntity
  8
BORDER
  0
SOLID
  5
5A25
330
18
100
AcDbEntity
  8
BORDER
100
AcDbTrace
 10
15.90234858433021
 20
2.470291697178187
 30
0.1677024
 11
15.91832203822379
 21
2.462310286192544
 31
0.1677024
 12
15.89585936868593
 22
2.491741739202103
 32
0.1677024
 13
15.91108406692825
 23
2.501967922027458
 33
0.1677024
  0
POLYLINE
  5
5A26
330
18
100
AcDbEntity
  8
BORDER
100
AcDb2dPolyline
 66
     1
 10
0.0
 20
0.0
 30
0.1677024
 40
0.00493045056
 41
0.00493045056
  0
VERTEX
  5
626D
330
5A26
100
AcDbEntity
  8
BORDER
100
AcDbVertex
100
AcDb2dVertex
 10
15.79543783155204
 20
2.490673265252777
 30
0.1677024
 42
0.3986208060685013
  0
VERTEX
  5
626E
330
5A26
100
AcDbEntity
  8
BORDER
100
AcDbVertex
100
AcDb2dVertex
 10
15.82837010359392
 20
2.420374273631635
 30
0.1677024
 42
0.3986208060685013
  0
SEQEND
  5
626F
330
5A26
100
AcDbEntity
  8
BORDER
  0
SOLID
  5
5A27
330
18
100
AcDbEntity
  8
BORDER
100
AcDbTrace
 10
15.82291490085985
 20
2.499107795052449
 30
0.1677024
 11
15.81049029370266
 21
2.512652890338303
 31
0.1677024
 12
15.8075535683746
 22
2.482627929121326
 32
0.1677024
 13
15.79332174563091
 23
2.488497470411862
 33
0.1677024
  0
SOLID
  5
5A28
330
18
100
AcDbEntity
  8
BORDER
100
AcDbTrace
 10
15.8075535683746
 20
2.482627929121326
 30
0.1677024
 11
15.79332174563091
 21
2.488497470411862
 31
0.1677024
 12
15.81003848980603
 22
2.456440744902008
 32
0.1677024
 13
15.7951289612174
 23
2.450345452023373
 33
0.1677024
  0
ARC
  5
5A29
330
18
100
AcDbEntity
  8
BORDER
100
AcDbCircle
 10
15.48037296698338
 20
2.451406827523078
 30
0.1677024
 40
0.0589785580760116
100
AcDbArc
 50
358.6532608214001
 51
58.67020583628288
  0
SOLID
  5
5A2A
330
18
100
AcDbEntity
  8
BORDER
100
AcDbTrace
 10
14.76653889437084
 20
2.477550151191652
 30
0.1677024
 11
14.76653889437084
 21
2.511788449336835
 31
0.1677024
 12
14.83350507409793
 22
2.477550151191652
 32
0.1677024
 13
14.85764617023569
 23
2.517497586131336
 33
0.1677024
  0
POLYLINE
  5
5A2B
330
18
100
AcDbEntity
  8
BORDER
100
AcDb2dPolyline
 66
     1
 10
0.0
 20
0.0
 30
0.1677024
 40
0.0104814
 41
0.0104814
  0
VERTEX
  5
6270
330
5A2B
100
AcDbEntity
  8
BORDER
100
AcDbVertex
100
AcDb2dVertex
 10
14.86549971251974
 20
2.385556000624649
 30
0.1677024
 42
0.9399343180161681
  0
VERTEX
  5
6271
330
5A2B
100
AcDbEntity
  8
BORDER
100
AcDbVertex
100
AcDb2dVertex
 10
14.85764617023569
 20
2.512256886131337
 30
0.1677024
 42
0.9399343180161681
  0
SEQEND
  5
6272
330
5A2B
100
AcDbEntity
  8
BORDER
  0
POLYLINE
  5
5A2C
330
18
100
AcDbEntity
  8
BORDER
100
AcDb2dPolyline
 66
     1
 10
0.0
 20
0.0
 30
0.1677024
 40
0.0104814
 41
0.0104814
  0
VERTEX
  5
6273
330
5A2C
100
AcDbEntity
  8
BORDER
100
AcDbVertex
100
AcDb2dVertex
 10
14.83350507409793
 20
2.394445578919877
 30
0.1677024
 42
1.0
  0
VERTEX
  5
6274
330
5A2C
100
AcDbEntity
  8
BORDER
100
AcDbVertex
100
AcDb2dVertex
 10
14.83350507409793
 20
2.482790851191652
 30
0.1677024
 42
1.0
  0
SEQEND
  5
6275
330
5A2C
100
AcDbEntity
  8
BORDER
  0
SOLID
  5
5A2D
330
18
100
AcDbEntity
  8
BORDER
100
AcDbTrace
 10
14.87389709336464
 20
2.461444576793407
 30
0.1677024
 11
14.91458577012296
 21
2.482616780915384
 31
0.1677024
 12
14.85599407559098
 22
2.480445272800309
 32
0.1677024
 13
14.87443960905475
 23
2.510303509382583
 33
0.1677024
  0
SOLID
  5
5A2E
330
18
100
AcDbEntity
  8
BORDER
100
AcDbTrace
 10
14.85599407559098
 20
2.480445272800309
 30
0.1677024
 11
14.87443960905475
 21
2.510303509382583
 31
0.1677024
 12
14.83350507409793
 22
2.477550151191652
 32
0.1677024
 13
14.85764617023569
 23
2.517497586131336
 33
0.1677024
  0
POLYLINE
  5
5A2F
330
18
100
AcDbEntity
  8
BORDER
100
AcDb2dPolyline
 66
     1
 10
0.0
 20
0.0
 30
0.1677024
 40
0.00493045056
 41
0.00493045056
  0
VERTEX
  5
6276
330
5A2F
100
AcDbEntity
  8
BORDER
100
AcDbVertex
100
AcDb2dVertex
 10
15.83111860223525
 20
2.501330070830354
 30
0.1677024
 42
0.3426274439635524
  0
VERTEX
  5
6277
330
5A2F
100
AcDbEntity
  8
BORDER
100
AcDbVertex
100
AcDb2dVertex
 10
15.80734620408546
 20
2.476050825668901
 30
0.1677024
 42
0.2942809489964497
  0
VERTEX
  5
6278
330
5A2F
100
AcDbEntity
  8
BORDER
100
AcDbVertex
100
AcDb2dVertex
 10
15.82428613456932
 20
2.443344666530432
 30
0.1677024
 42
0.2735375373643303
  0
VERTEX
  5
6279
330
5A2F
100
AcDbEntity
  8
BORDER
100
AcDbVertex
100
AcDb2dVertex
 10
15.88593923054275
 20
2.444178151741401
 30
0.1677024
 42
0.208169861593478
  0
VERTEX
  5
627A
330
5A2F
100
AcDbEntity
  8
BORDER
100
AcDbVertex
100
AcDb2dVertex
 10
15.90160919418534
 20
2.466465816932976
 30
0.1677024
 42
0.4189849082168211
  0
VERTEX
  5
627B
330
5A2F
100
AcDbEntity
  8
BORDER
100
AcDbVertex
100
AcDb2dVertex
 10
15.87745005096923
 20
2.502453249544586
 30
0.1677024
 42
0.4189849082168211
  0
SEQEND
  5
627C
330
5A2F
100
AcDbEntity
  8
BORDER
  0
LINE
  5
5A30
330
18
100
AcDbEntity
  8
BORDER
100
AcDbLine
 10
14.98148885264618
 20
2.300008536131336
 30
0.1677024
 11
14.98148885264618
 21
2.517497586131336
 31
0.1677024
  0
LINE
  5
5A31
330
18
100
AcDbEntity
  8
BORDER
100
AcDbLine
 10
14.92646150264618
 20
2.517497586131336
 30
0.1677024
 11
14.92646150264618
 21
2.255462586131337
 31
0.1677024
  0
POLYLINE
  5
5A32
330
18
100
AcDbEntity
  8
BORDER
100
AcDb2dPolyline
 66
     1
 10
0.0
 20
0.0
 30
0.1677024
  0
VERTEX
  5
627D
330
5A32
100
AcDbEntity
  8
BORDER
100
AcDbVertex
100
AcDb2dVertex
 10
15.10997771489618
 20
2.300008536131336
 30
0.1677024
  0
VERTEX
  5
627E
330
5A32
100
AcDbEntity
  8
BORDER
100
AcDbVertex
100
AcDb2dVertex
 10
15.18718632764619
 20
2.517497586131336
 30
0.1677024
  0
VERTEX
  5
627F
330
5A32
100
AcDbEntity
  8
BORDER
100
AcDbVertex
100
AcDb2dVertex
 10
15.24614420264618
 20
2.517497586131336
 30
0.1677024
  0
VERTEX
  5
6280
330
5A32
100
AcDbEntity
  8
BORDER
100
AcDbVertex
100
AcDb2dVertex
 10
15.33258757683973
 20
2.273995123614297
 30
0.1677024
  0
SEQEND
  5
6281
330
5A32
100
AcDbEntity
  8
BORDER
  0
LINE
  5
5A33
330
18
100
AcDbEntity
  8
BORDER
100
AcDbLine
 10
15.33258757683973
 20
2.517497586131336
 30
0.1677024
 11
15.33258757683973
 21
2.273995123614299
 31
0.1677024
  0
POLYLINE
  5
5A34
330
18
100
AcDbEntity
  8
BORDER
100
AcDb2dPolyline
 66
     1
 10
0.0
 20
0.0
 30
0.1677024
  0
VERTEX
  5
6282
330
5A34
100
AcDbEntity
  8
BORDER
100
AcDbVertex
100
AcDb2dVertex
 10
15.54666591459322
 20
2.334210671736443
 30
0.1677024
  0
VERTEX
  5
6283
330
5A34
100
AcDbEntity
  8
BORDER
100
AcDbVertex
100
AcDb2dVertex
 10
15.58868177414534
 20
2.334210671736443
 30
0.1677024
 42
0.3020440864755188
  0
VERTEX
  5
6284
330
5A34
100
AcDbEntity
  8
BORDER
100
AcDbVertex
100
AcDb2dVertex
 10
15.61555162392121
 20
2.294624202276565
 30
0.1677024
 42
0.2653699712401423
  0
VERTEX
  5
6285
330
5A34
100
AcDbEntity
  8
BORDER
100
AcDbVertex
100
AcDb2dVertex
 10
15.68759371750457
 20
2.304114549770706
 30
0.1677024
 42
0.6356064402471244
  0
VERTEX
  5
6286
330
5A34
100
AcDbEntity
  8
BORDER
100
AcDbVertex
100
AcDb2dVertex
 10
15.67596573271429
 20
2.358311684260055
 30
0.1677024
 42
-0.0009437836138568
  0
VERTEX
  5
6287
330
5A34
100
AcDbEntity
  8
BORDER
100
AcDbVertex
100
AcDb2dVertex
 10
15.59007221237064
 20
2.37832868810786
 30
0.1677024
 42
-0.3442454331168749
  0
VERTEX
  5
6288
330
5A34
100
AcDbEntity
  8
BORDER
100
AcDbVertex
100
AcDb2dVertex
 10
15.53938797198022
 20
2.4414078564764
 30
0.1677024
 42
-0.322222187521162
  0
VERTEX
  5
6289
330
5A34
100
AcDbEntity
  8
BORDER
100
AcDbVertex
100
AcDb2dVertex
 10
15.59136875298689
 20
2.515837983645528
 30
0.1677024
 42
-0.1417364340760132
  0
VERTEX
  5
628A
330
5A34
100
AcDbEntity
  8
BORDER
100
AcDbVertex
100
AcDb2dVertex
 10
15.68022029139325
 20
2.520829930332128
 30
0.1677024
 42
-0.3337744805077131
  0
VERTEX
  5
628B
330
5A34
100
AcDbEntity
  8
BORDER
100
AcDbVertex
100
AcDb2dVertex
 10
15.74397398679628
 20
2.445296615677748
 30
0.1677024
  0
VERTEX
  5
628C
330
5A34
100
AcDbEntity
  8
BORDER
100
AcDbVertex
100
AcDb2dVertex
 10
15.69215980936515
 20
2.445296615677748
 30
0.1677024
 42
0.3019792396306431
  0
VERTEX
  5
628D
330
5A34
100
AcDbEntity
  8
BORDER
100
AcDbVertex
100
AcDb2dVertex
 10
15.66740696524277
 20
2.479695889795471
 30
0.1677024
 42
0.1972875622237244
  0
VERTEX
  5
628E
330
5A34
100
AcDbEntity
  8
BORDER
100
AcDbVertex
100
AcDb2dVertex
 10
15.61245847369059
 20
2.47809853067431
 30
0.1677024
 42
0.728374493267646
  0
VERTEX
  5
628F
330
5A34
100
AcDbEntity
  8
BORDER
100
AcDbVertex
100
AcDb2dVertex
 10
15.61870560631762
 20
2.419866265182064
 30
0.1677024
 42
0.0019568917075044
  0
SEQEND
  5
6290
330
5A34
100
AcDbEntity
  8
BORDER
  0
SOLID
  5
5A35
330
18
100
AcDbEntity
  8
BORDER
100
AcDbTrace
 10
14.68785378002881
 20
2.471408161981998
 30
0.1677024
 11
14.64888506626278
 21
2.453014450379919
 31
0.1677024
 12
14.63565040875734
 22
2.512610075970656
 32
0.1677024
 13
14.62241575125191
 23
2.475086904302415
 33
0.1677024
  0
SOLID
  5
5A36
330
18
100
AcDbEntity
  8
BORDER
100
AcDbTrace
 10
14.63565040875734
 20
2.512610075970656
 30
0.1677024
 11
14.62241575125191
 21
2.475086904302415
 31
0.1677024
 12
14.58762865452397
 22
2.522814238305249
 32
0.1677024
 13
14.58652175589624
 23
2.485154618740033
 33
0.1677024
  0
SOLID
  5
5A37
330
18
100
AcDbEntity
  8
BORDER
100
AcDbTrace
 10
14.51789404097712
 20
2.498446249174815
 30
0.1677024
 11
14.53781821627622
 21
2.468540080696555
 31
0.1677024
 12
14.48247328488984
 22
2.458571357870467
 32
0.1677024
 13
14.52010783823258
 23
2.431988097000902
 33
0.1677024
  0
POLYLINE
  5
5A38
330
18
100
AcDbEntity
  8
BORDER
100
AcDb2dPolyline
 66
     1
 10
0.0
 20
0.0
 30
0.1677024
 40
0.0104814
 41
0.0104814
  0
VERTEX
  5
6291
330
5A38
100
AcDbEntity
  8
BORDER
100
AcDbVertex
100
AcDb2dVertex
 10
14.70090750849396
 20
2.436925369059132
 30
0.1677024
 42
0.7414713431190223
  0
VERTEX
  5
6292
330
5A38
100
AcDbEntity
  8
BORDER
100
AcDbVertex
100
AcDb2dVertex
 10
14.47546412469451
 20
2.435594318890266
 30
0.1677024
 42
0.7414713431190223
  0
SEQEND
  5
6293
330
5A38
100
AcDbEntity
  8
BORDER
  0
SOLID
  5
5A39
330
18
100
AcDbEntity
  8
BORDER
100
AcDbTrace
 10
14.58762865452397
 20
2.522814238305249
 30
0.1677024
 11
14.58652175589624
 21
2.485154618740033
 31
0.1677024
 12
14.51789404097712
 22
2.498446249174815
 32
0.1677024
 13
14.53781821627622
 23
2.468540080696555
 33
0.1677024
  0
SOLID
  5
5A3A
330
18
100
AcDbEntity
  8
BORDER
100
AcDbTrace
 10
14.03030180264618
 20
2.517497586131336
 30
0.1677024
 11
14.25041120264618
 21
2.517497586131336
 31
0.1677024
 12
14.03030180264618
 22
2.474261811131337
 32
0.1677024
 13
14.25041120264618
 23
2.474261811131337
 33
0.1677024
  0
POLYLINE
  5
5A3B
330
18
100
AcDbEntity
  8
BORDER
100
AcDb2dPolyline
 66
     1
 10
0.0
 20
0.0
 30
0.1677024
 70
     1
 40
0.0104814
 41
0.0104814
  0
VERTEX
  5
6294
330
5A3B
100
AcDbEntity
  8
BORDER
100
AcDbVertex
100
AcDb2dVertex
 10
14.52402024739717
 20
2.444996620445319
 30
0.1677024
 42
0.2285268323977459
  0
VERTEX
  5
6295
330
5A3B
100
AcDbEntity
  8
BORDER
100
AcDbVertex
100
AcDb2dVertex
 10
14.5252443002824
 20
2.326021752009645
 30
0.1677024
 42
0.6230043105321781
  0
VERTEX
  5
6296
330
5A3B
100
AcDbEntity
  8
BORDER
100
AcDbVertex
100
AcDb2dVertex
 10
14.65130319986161
 20
2.326419477316846
 30
0.1677024
 42
0.2290062495557326
  0
VERTEX
  5
6297
330
5A3B
100
AcDbEntity
  8
BORDER
100
AcDbVertex
100
AcDb2dVertex
 10
14.65166843198482
 20
2.445515668241113
 30
0.1677024
 42
0.6323121992740218
  0
SEQEND
  5
6298
330
5A3B
100
AcDbEntity
  8
BORDER
  0
SOLID
  5
5A3C
330
18
100
AcDbEntity
  8
BORDER
100
AcDbTrace
 10
14.25041120264618
 20
2.517497586131336
 30
0.1677024
 11
14.30281820264618
 21
2.517497586131336
 31
0.1677024
 12
14.25041120264618
 22
2.255462586131336
 32
0.1677024
 13
14.30281820264618
 23
2.255462586131336
 33
0.1677024
  0
SOLID
  5
5A3D
330
18
100
AcDbEntity
  8
BORDER
100
AcDbTrace
 10
14.41156272764618
 20
2.517497586131336
 30
0.1677024
 11
14.46396972764618
 21
2.517497586131336
 31
0.1677024
 12
14.41156272764618
 22
2.255462586131336
 32
0.1677024
 13
14.46396972764618
 23
2.255462586131336
 33
0.1677024
  0
SOLID
  5
5A3E
330
18
100
AcDbEntity
  8
BORDER
100
AcDbTrace
 10
14.71300909850256
 20
2.255462586131336
 30
0.1677024
 11
14.71300909850256
 21
2.517497586131336
 31
0.1677024
 12
14.76653889437084
 22
2.255462586131336
 32
0.1677024
 13
14.76653889437084
 23
2.511788449336835
 33
0.1677024
  0
LINE
  5
5A3F
330
18
100
AcDbEntity
  8
BORDER
100
AcDbLine
 10
14.92646150264618
 20
2.255462586131337
 30
0.1677024
 11
15.11250635264619
 21
2.255462586131337
 31
0.1677024
  0
LINE
  5
5A40
330
18
100
AcDbEntity
  8
BORDER
100
AcDbLine
 10
15.10997771489618
 20
2.300008536131336
 30
0.1677024
 11
14.98148885264618
 21
2.300008536131336
 31
0.1677024
  0
SOLID
  5
5A41
330
18
100
AcDbEntity
  8
BORDER
100
AcDbTrace
 10
14.11415300264619
 20
2.255462586131337
 30
0.1677024
 11
14.16656000264618
 21
2.255462586131337
 31
0.1677024
 12
14.11415300264619
 22
2.474261811131337
 32
0.1677024
 13
14.16656000264618
 23
2.474261811131337
 33
0.1677024
  0
SOLID
  5
5A42
330
18
100
AcDbEntity
  8
BORDER
100
AcDbTrace
 10
14.41156272764618
 20
2.415303936131336
 30
0.1677024
 11
14.30281820264618
 21
2.415303936131336
 31
0.1677024
 12
14.41156272764618
 22
2.370757986131337
 32
0.1677024
 13
14.30281820264618
 23
2.370757986131337
 33
0.1677024
  0
POLYLINE
  5
5A43
330
18
100
AcDbEntity
  8
BORDER
100
AcDb2dPolyline
 66
     1
 10
0.0
 20
0.0
 30
0.1677024
 40
0.0104814
 41
0.0104814
  0
VERTEX
  5
6299
330
5A43
100
AcDbEntity
  8
BORDER
100
AcDbVertex
100
AcDb2dVertex
 10
14.70285880008668
 20
2.344482536601264
 30
0.1677024
 42
0.1406948172011772
  0
VERTEX
  5
629A
330
5A43
100
AcDbEntity
  8
BORDER
100
AcDbVertex
100
AcDb2dVertex
 10
14.70090750849396
 20
2.436925369059132
 30
0.1677024
 42
0.1406948172011772
  0
SEQEND
  5
629B
330
5A43
100
AcDbEntity
  8
BORDER
  0
SOLID
  5
5A44
330
18
100
AcDbEntity
  8
BORDER
100
AcDbTrace
 10
14.70991154253787
 20
2.397097567109597
 30
0.1677024
 11
14.66432550001913
 21
2.401512057894096
 31
0.1677024
 12
14.68785378002881
 22
2.471408161981998
 32
0.1677024
 13
14.64888506626278
 23
2.453014450379919
 33
0.1677024
  0
POLYLINE
  5
5A45
330
18
100
AcDbEntity
  8
BORDER
100
AcDb2dPolyline
 66
     1
 10
0.0
 20
0.0
 30
0.1677024
 40
0.0104814
 41
0.0104814
  0
VERTEX
  5
629C
330
5A45
100
AcDbEntity
  8
BORDER
100
AcDbVertex
100
AcDb2dVertex
 10
14.47546412469451
 20
2.435594318890266
 30
0.1677024
 42
0.1430540650207981
  0
VERTEX
  5
629D
330
5A45
100
AcDbEntity
  8
BORDER
100
AcDbVertex
100
AcDb2dVertex
 10
14.47502729388522
 20
2.342083503530088
 30
0.1677024
 42
0.1430540650207981
  0
SEQEND
  5
629E
330
5A45
100
AcDbEntity
  8
BORDER
  0
SOLID
  5
5A46
330
18
100
AcDbEntity
  8
BORDER
100
AcDbTrace
 10
14.48247328488984
 20
2.458571357870467
 30
0.1677024
 11
14.52010783823258
 21
2.431988097000902
 31
0.1677024
 12
14.46727615493814
 22
2.38606134014835
 32
0.1677024
 13
14.50992116245567
 23
2.382382597827934
 33
0.1677024
  0
SOLID
  5
5A47
330
18
100
AcDbEntity
  8
BORDER
100
AcDbTrace
 10
14.588593848738
 20
2.254362365077462
 30
0.1677024
 11
14.588593848738
 21
2.287471045961204
 31
0.1677024
 12
14.65697291251611
 22
2.277906315928123
 32
0.1677024
 13
14.63859144375855
 23
2.302921763706951
 33
0.1677024
  0
SOLID
  5
5A48
330
18
100
AcDbEntity
  8
BORDER
100
AcDbTrace
 10
14.486392882446
 20
2.311014996811866
 30
0.1677024
 11
14.52389107871141
 21
2.324994217629446
 31
0.1677024
 12
14.54153728871866
 22
2.263191346646459
 32
0.1677024
 13
14.56065401622652
 23
2.290414039817536
 33
0.1677024
  0
SOLID
  5
5A49
330
18
100
AcDbEntity
  8
BORDER
100
AcDbTrace
 10
14.54153728871866
 20
2.263191346646459
 30
0.1677024
 11
14.56065401622652
 21
2.290414039817536
 31
0.1677024
 12
14.588593848738
 22
2.254362365077462
 32
0.1677024
 13
14.588593848738
 23
2.287471045961204
 33
0.1677024
  0
POLYLINE
  5
5A4A
330
18
100
AcDbEntity
  8
BORDER
100
AcDb2dPolyline
 66
     1
 10
0.0
 20
0.0
 30
0.1677024
 40
0.0104814
 41
0.0104814
  0
VERTEX
  5
629F
330
5A4A
100
AcDbEntity
  8
BORDER
100
AcDbVertex
100
AcDb2dVertex
 10
14.47502729388522
 20
2.342083503530088
 30
0.1677024
 42
0.7616390336395551
  0
VERTEX
  5
62A0
330
5A4A
100
AcDbEntity
  8
BORDER
100
AcDbVertex
100
AcDb2dVertex
 10
14.70285880008668
 20
2.344482536601264
 30
0.1677024
 42
0.7616390336395551
  0
SEQEND
  5
62A1
330
5A4A
100
AcDbEntity
  8
BORDER
  0
SOLID
  5
5A4B
330
18
100
AcDbEntity
  8
BORDER
100
AcDbTrace
 10
14.46727615493814
 20
2.38606134014835
 30
0.1677024
 11
14.50992116245567
 21
2.382382597827934
 31
0.1677024
 12
14.486392882446
 22
2.311014996811866
 32
0.1677024
 13
14.52389107871141
 23
2.324994217629446
 33
0.1677024
  0
SOLID
  5
5A4C
330
18
100
AcDbEntity
  8
BORDER
100
AcDbTrace
 10
14.65697291251611
 20
2.277906315928123
 30
0.1677024
 11
14.63859144375855
 21
2.302921763706951
 31
0.1677024
 12
14.69373585003122
 22
2.319108229916781
 32
0.1677024
 13
14.66285498251853
 23
2.351481162336441
 33
0.1677024
  0
SOLID
  5
5A4D
330
18
100
AcDbEntity
  8
BORDER
100
AcDbTrace
 10
14.69373585003122
 20
2.319108229916781
 30
0.1677024
 11
14.66285498251853
 21
2.351481162336441
 31
0.1677024
 12
14.70991154253787
 22
2.397097567109597
 32
0.1677024
 13
14.66432550001913
 23
2.401512057894096
 33
0.1677024
  0
SOLID
  5
5A4E
330
18
100
AcDbEntity
  8
BORDER
100
AcDbTrace
 10
14.87932225026575
 20
2.439729495642663
 30
0.1677024
 11
14.92001092702407
 21
2.426700446952215
 31
0.1677024
 12
14.87389709336464
 22
2.461444576793407
 32
0.1677024
 13
14.91458577012296
 23
2.482616780915384
 33
0.1677024
  0
SOLID
  5
5A4F
330
18
100
AcDbEntity
  8
BORDER
100
AcDbTrace
 10
14.76653889437084
 20
2.399686278919876
 30
0.1677024
 11
14.76653889437084
 21
2.36018581116814
 31
0.1677024
 12
14.83350507409793
 22
2.399686278919876
 32
0.1677024
 13
14.81757654080889
 23
2.36018581116814
 33
0.1677024
  0
SOLID
  5
5A50
330
18
100
AcDbEntity
  8
BORDER
100
AcDbTrace
 10
14.84044033948886
 20
2.362151702374647
 30
0.1677024
 11
14.86614691446446
 21
2.380355417375364
 31
0.1677024
 12
14.81757654080889
 22
2.36018581116814
 32
0.1677024
 13
14.83350507409793
 23
2.399686278919876
 33
0.1677024
  0
SOLID
  5
5A51
330
18
100
AcDbEntity
  8
BORDER
100
AcDbTrace
 10
14.85465917894023
 20
2.348000403239088
 30
0.1677024
 11
14.88300006167914
 21
2.367852234524531
 31
0.1677024
 12
14.84044033948886
 22
2.362151702374647
 32
0.1677024
 13
14.86614691446446
 23
2.380355417375364
 33
0.1677024
  0
SOLID
  5
5A52
330
18
100
AcDbEntity
  8
BORDER
100
AcDbTrace
 10
14.86105881997068
 20
2.398760312599209
 30
0.1677024
 11
14.8810844778046
 21
2.389424156424391
 31
0.1677024
 12
14.87932225026575
 22
2.439729495642663
 32
0.1677024
 13
14.92001092702407
 23
2.426700446952215
 33
0.1677024
  0
SOLID
  5
5A53
330
18
100
AcDbEntity
  8
BORDER
100
AcDbTrace
 10
14.86105881997068
 20
2.398760312599209
 30
0.1677024
 11
14.8810844778046
 21
2.389424156424391
 31
0.1677024
 12
14.83350507409793
 22
2.399686278919876
 32
0.1677024
 13
14.86614691446446
 23
2.380355417375364
 33
0.1677024
  0
POLYLINE
  5
5A54
330
18
100
AcDbEntity
  8
BORDER
100
AcDb2dPolyline
 66
     1
 10
0.0
 20
0.0
 30
0.1677024
 40
0.0104814
 41
0.0104814
  0
VERTEX
  5
62A2
330
5A54
100
AcDbEntity
  8
BORDER
100
AcDbVertex
100
AcDb2dVertex
 10
14.91597124086369
 20
2.272311824583561
 30
0.1677024
 42
0.0950669764493849
  0
VERTEX
  5
62A3
330
5A54
100
AcDbEntity
  8
BORDER
100
AcDbVertex
100
AcDb2dVertex
 10
14.92015690490229
 20
2.258170794898105
 30
0.1677024
 42
0.1404915454274296
  0
SEQEND
  5
62A4
330
5A54
100
AcDbEntity
  8
BORDER
  0
SOLID
  5
5A55
330
18
100
AcDbEntity
  8
BORDER
100
AcDbTrace
 10
14.87404461873062
 20
2.255462586131336
 30
0.1677024
 11
14.92806883275265
 21
2.255462586131336
 31
0.1677024
 12
14.87156956928777
 22
2.26274883580767
 32
0.1677024
 13
14.92017509034986
 23
2.267857647445038
 33
0.1677024
  0
POLYLINE
  5
5A56
330
18
100
AcDbEntity
  8
BORDER
100
AcDb2dPolyline
 66
     1
 10
0.0
 20
0.0
 30
0.1677024
 40
0.0104814
 41
0.0104814
  0
VERTEX
  5
62A5
330
5A56
100
AcDbEntity
  8
BORDER
100
AcDbVertex
100
AcDb2dVertex
 10
14.87491980210343
 20
2.269287899109138
 30
0.1677024
 42
0.1148360225250129
  0
VERTEX
  5
62A6
330
5A56
100
AcDbEntity
  8
BORDER
100
AcDbVertex
100
AcDb2dVertex
 10
14.87853203930082
 20
2.258169612750358
 30
0.1677024
 42
0.1148360225250129
  0
SEQEND
  5
62A7
330
5A56
100
AcDbEntity
  8
BORDER
  0
SOLID
  5
5A57
330
18
100
AcDbEntity
  8
BORDER
100
AcDbTrace
 10
14.86565356538485
 20
2.316051533604086
 30
0.1677024
 11
14.86969822948603
 21
2.268840555962012
 31
0.1677024
 12
14.91544284242362
 22
2.331120750135454
 32
0.1677024
 13
14.92118668553889
 23
2.272825705240911
 33
0.1677024
  0
SOLID
  5
5A58
330
18
100
AcDbEntity
  8
BORDER
100
AcDbTrace
 10
14.87156956928777
 20
2.26274883580767
 30
0.1677024
 11
14.92017509034986
 21
2.267857647445038
 31
0.1677024
 12
14.86969822948603
 22
2.268840555962012
 32
0.1677024
 13
14.92118668553889
 23
2.272825705240911
 33
0.1677024
  0
POLYLINE
  5
5A59
330
18
100
AcDbEntity
  8
BORDER
100
AcDb2dPolyline
 66
     1
 10
0.0
 20
0.0
 30
0.1677024
 40
0.0104814
 41
0.0104814
  0
VERTEX
  5
62A8
330
5A59
100
AcDbEntity
  8
BORDER
100
AcDbVertex
100
AcDb2dVertex
 10
14.91022739774843
 20
2.330606869478105
 30
0.1677024
 42
0.3581345567762107
  0
VERTEX
  5
62A9
330
5A59
100
AcDbEntity
  8
BORDER
100
AcDbVertex
100
AcDb2dVertex
 10
14.86563951953554
 20
2.375139337729105
 30
0.1677024
 42
0.3581345567762107
  0
SEQEND
  5
62AA
330
5A59
100
AcDbEntity
  8
BORDER
  0
POLYLINE
  5
5A5A
330
18
100
AcDbEntity
  8
BORDER
100
AcDb2dPolyline
 66
     1
 10
0.0
 20
0.0
 30
0.1677024
 40
0.0104814
 41
0.0104814
  0
VERTEX
  5
62AB
330
5A5A
100
AcDbEntity
  8
BORDER
100
AcDbVertex
100
AcDb2dVertex
 10
14.87087513800224
 20
2.316498876751212
 30
0.1677024
 42
0.3893977487990803
  0
VERTEX
  5
62AC
330
5A5A
100
AcDbEntity
  8
BORDER
100
AcDbVertex
100
AcDb2dVertex
 10
14.81757654080889
 20
2.36542651116814
 30
0.1677024
 42
0.3893977487990803
  0
SEQEND
  5
62AD
330
5A5A
100
AcDbEntity
  8
BORDER
  0
SOLID
  5
5A5B
330
18
100
AcDbEntity
  8
BORDER
100
AcDbTrace
 10
14.86565356538485
 20
2.316051533604086
 30
0.1677024
 11
14.91544284242362
 21
2.331120750135454
 31
0.1677024
 12
14.86670405410427
 22
2.331693541826044
 32
0.1677024
 13
14.90921537821265
 23
2.346582415290127
 33
0.1677024
  0
SOLID
  5
5A5C
330
18
100
AcDbEntity
  8
BORDER
100
AcDbTrace
 10
14.86670405410427
 20
2.331693541826044
 30
0.1677024
 11
14.90921537821265
 21
2.346582415290127
 31
0.1677024
 12
14.85465917894023
 22
2.348000403239088
 32
0.1677024
 13
14.88300006167914
 23
2.367852234524531
 33
0.1677024
  0
POLYLINE
  5
5A5D
330
18
100
AcDbEntity
  8
BORDER
100
AcDb2dPolyline
 66
     1
 10
0.0
 20
0.0
 30
0.1677024
  0
VERTEX
  5
62AE
330
5A5D
100
AcDbEntity
  8
BORDER
100
AcDbVertex
100
AcDb2dVertex
 10
15.61870560631762
 20
2.419866265182064
 30
0.1677024
 42
0.0019568917075044
  0
VERTEX
  5
62AF
330
5A5D
100
AcDbEntity
  8
BORDER
100
AcDbVertex
100
AcDb2dVertex
 10
15.69374351293166
 20
2.404578858603103
 30
0.1677024
 42
-0.2136964031287707
  0
VERTEX
  5
62B0
330
5A5D
100
AcDbEntity
  8
BORDER
100
AcDbVertex
100
AcDb2dVertex
 10
15.74477850139025
 20
2.368908269974074
 30
0.1677024
 42
-0.2075585583027768
  0
VERTEX
  5
62B1
330
5A5D
100
AcDbEntity
  8
BORDER
100
AcDbVertex
100
AcDb2dVertex
 10
15.75183595513862
 20
2.315099842159789
 30
0.1677024
 42
-0.2311984101377718
  0
VERTEX
  5
62B2
330
5A5D
100
AcDbEntity
  8
BORDER
100
AcDbVertex
100
AcDb2dVertex
 10
15.70219527232426
 20
2.259997681822924
 30
0.1677024
 42
-0.176335766587305
  0
VERTEX
  5
62B3
330
5A5D
100
AcDbEntity
  8
BORDER
100
AcDbVertex
100
AcDb2dVertex
 10
15.59857960989478
 20
2.256473672392217
 30
0.1677024
 42
-0.2115906095274752
  0
VERTEX
  5
62B4
330
5A5D
100
AcDbEntity
  8
BORDER
100
AcDbVertex
100
AcDb2dVertex
 10
15.54348309252508
 20
2.305990850964811
 30
0.1677024
  0
SEQEND
  5
62B5
330
5A5D
100
AcDbEntity
  8
BORDER
  0
POLYLINE
  5
5A5E
330
18
100
AcDbEntity
  8
BORDER
100
AcDb2dPolyline
 66
     1
 10
0.0
 20
0.0
 30
0.1677024
  0
VERTEX
  5
62B6
330
5A5E
100
AcDbEntity
  8
BORDER
100
AcDbVertex
100
AcDb2dVertex
 10
15.33916662764618
 20
2.255462586131336
 30
0.1677024
  0
VERTEX
  5
62B7
330
5A5E
100
AcDbEntity
  8
BORDER
100
AcDbVertex
100
AcDb2dVertex
 10
15.28413927764619
 20
2.255462586131336
 30
0.1677024
  0
VERTEX
  5
62B8
330
5A5E
100
AcDbEntity
  8
BORDER
100
AcDbVertex
100
AcDb2dVertex
 10
15.26678376285634
 20
2.311800111131336
 30
0.1677024
  0
SEQEND
  5
62B9
330
5A5E
100
AcDbEntity
  8
BORDER
  0
LINE
  5
5A5F
330
18
100
AcDbEntity
  8
BORDER
100
AcDbLine
 10
15.25467526416575
 20
2.351105361131335
 30
0.1677024
 11
15.21666526514619
 21
2.474489155616477
 31
0.1677024
  0
LINE
  5
5A60
330
18
100
AcDbEntity
  8
BORDER
100
AcDbLine
 10
15.17865526612663
 20
2.351105361131335
 30
0.1677024
 11
15.25467526416575
 21
2.351105361131335
 31
0.1677024
  0
LINE
  5
5A61
330
18
100
AcDbEntity
  8
BORDER
100
AcDbLine
 10
15.21666526514619
 20
2.474489155616477
 30
0.1677024
 11
15.17865526612663
 21
2.351105361131335
 31
0.1677024
  0
POLYLINE
  5
5A62
330
18
100
AcDbEntity
  8
BORDER
100
AcDb2dPolyline
 66
     1
 10
0.0
 20
0.0
 30
0.1677024
  0
VERTEX
  5
62BA
330
5A62
100
AcDbEntity
  8
BORDER
100
AcDbVertex
100
AcDb2dVertex
 10
15.26678376285634
 20
2.311800111131336
 30
0.1677024
  0
VERTEX
  5
62BB
330
5A62
100
AcDbEntity
  8
BORDER
100
AcDbVertex
100
AcDb2dVertex
 10
15.16654676743603
 20
2.311800111131336
 30
0.1677024
  0
VERTEX
  5
62BC
330
5A62
100
AcDbEntity
  8
BORDER
100
AcDbVertex
100
AcDb2dVertex
 10
15.14919125264619
 20
2.255462586131336
 30
0.1677024
  0
VERTEX
  5
62BD
330
5A62
100
AcDbEntity
  8
BORDER
100
AcDbVertex
100
AcDb2dVertex
 10
15.09416390264618
 20
2.255462586131336
 30
0.1677024
  0
SEQEND
  5
62BE
330
5A62
100
AcDbEntity
  8
BORDER
  0
ARC
  5
5A63
330
18
100
AcDbEntity
  8
BORDER
100
AcDbCircle
 10
15.45983494093842
 20
2.309403825740498
 30
0.1677024
 40
0.0940653841802545
100
AcDbArc
 50
41.8214311105379
 51
67.21116987831337
  0
ARC
  5
5A64
330
18
100
AcDbEntity
  8
BORDER
100
AcDbCircle
 10
15.45050332683973
 20
2.492604261131342
 30
0.1677024
 40
0.1067827813404871
100
AcDbArc
 50
295.3783953421117
 51
313.157562911559
  0
ARC
  5
5A65
330
18
100
AcDbEntity
  8
BORDER
100
AcDbCircle
 10
15.48933036743682
 20
2.451196244748515
 30
0.1677024
 40
0.050018682631104
100
AcDbArc
 50
313.1575629115595
 51
358.653260821401
  0
ARC
  5
5A66
330
18
100
AcDbEntity
  8
BORDER
100
AcDbCircle
 10
15.47999330792207
 20
2.327441058348393
 30
0.1677024
 40
0.0670154023022719
100
AcDbArc
 50
5.797666812800194
 51
41.82143111053831
  0
LINE
  5
5A67
330
18
100
AcDbEntity
  8
BORDER
100
AcDbLine
 10
15.38499457683974
 20
2.478192336131336
 30
0.1677024
 11
15.38499457683974
 21
2.412683586131335
 31
0.1677024
  0
LINE
  5
5A68
330
18
100
AcDbEntity
  8
BORDER
100
AcDbLine
 10
15.45463958881493
 20
2.372068161131337
 30
0.1677024
 11
15.38499457683974
 21
2.372068161131337
 31
0.1677024
  0
ARC
  5
5A69
330
18
100
AcDbEntity
  8
BORDER
100
AcDbCircle
 10
15.45125395215111
 20
2.445437961131336
 30
0.1677024
 40
0.032754375
100
AcDbArc
 50
270.0
 51
90.00000482967505
  0
LINE
  5
5A6A
330
18
100
AcDbEntity
  8
BORDER
100
AcDbLine
 10
15.38499457683974
 20
2.412683586131335
 30
0.1677024
 11
15.45125395215111
 21
2.412683586131335
 31
0.1677024
  0
LINE
  5
5A6B
330
18
100
AcDbEntity
  8
BORDER
100
AcDbLine
 10
15.45125394939012
 20
2.478192336131336
 30
0.1677024
 11
15.38499457683974
 21
2.478192336131336
 31
0.1677024
  0
ARC
  5
5A6C
330
18
100
AcDbEntity
  8
BORDER
100
AcDbCircle
 10
15.44788297683973
 20
2.342599732319962
 30
0.1677024
 40
0.0465217211886261
100
AcDbArc
 50
270.0
 51
313.2275081247473
  0
ARC
  5
5A6D
330
18
100
AcDbEntity
  8
BORDER
100
AcDbCircle
 10
15.45967455183974
 20
2.366551910343223
 30
0.1677024
 40
0.1110893242118861
100
AcDbArc
 50
269.9999999999952
 51
297.4526478761186
  0
ARC
  5
5A6E
330
18
100
AcDbEntity
  8
BORDER
100
AcDbCircle
 10
15.47999330792207
 20
2.327441058348393
 30
0.1677024
 40
0.0670154023022719
100
AcDbArc
 50
297.4526478761237
 51
341.3323115150402
  0
LINE
  5
5A6F
330
18
100
AcDbEntity
  8
BORDER
100
AcDbLine
 10
15.38499457683974
 20
2.296078011131337
 30
0.1677024
 11
15.44788297683973
 21
2.296078011131337
 31
0.1677024
  0
LINE
  5
5A70
330
18
100
AcDbEntity
  8
BORDER
100
AcDbLine
 10
15.33258757683973
 20
2.255462586131337
 30
0.1677024
 11
15.45967455183973
 21
2.255462586131337
 31
0.1677024
  0
ARC
  5
5A71
330
18
100
AcDbEntity
  8
BORDER
100
AcDbCircle
 10
15.45463958881493
 20
2.335411590285651
 30
0.1677024
 40
0.0366565708456863
100
AcDbArc
 50
313.2275081247476
 51
90.0
  0
LINE
  5
5A72
330
18
100
AcDbEntity
  8
BORDER
100
AcDbLine
 10
15.38499457683974
 20
2.372068161131337
 30
0.1677024
 11
15.38499457683974
 21
2.296078011131337
 31
0.1677024
  0
SOLID
  5
5A73
330
18
100
AcDbEntity
  8
BORDER
100
AcDbTrace
 10
15.79353454971941
 20
2.401034400922116
 30
0.1677024
 11
15.91679581371941
 21
2.401034400922116
 31
0.1677024
 12
15.79353454971941
 22
2.375149535482116
 32
0.1677024
 13
15.91679581371941
 23
2.375149535482116
 33
0.1677024
  0
POLYLINE
  5
5A74
330
18
100
AcDbEntity
  8
BORDER
100
AcDb2dPolyline
 66
     1
 10
0.0
 20
0.0
 30
0.1677024
 40
0.00493045056
 41
0.00493045056
  0
VERTEX
  5
62BF
330
5A74
100
AcDbEntity
  8
BORDER
100
AcDbVertex
100
AcDb2dVertex
 10
15.82837010359392
 20
2.420374273631635
 30
0.1677024
 42
0.2706611322925477
  0
VERTEX
  5
62C0
330
5A74
100
AcDbEntity
  8
BORDER
100
AcDbVertex
100
AcDb2dVertex
 10
15.89837348150257
 20
2.431283286226639
 30
0.1677024
 42
0.2706611322925477
  0
SEQEND
  5
62C1
330
5A74
100
AcDbEntity
  8
BORDER
  0
SOLID
  5
5A75
330
18
100
AcDbEntity
  8
BORDER
100
AcDbTrace
 10
15.85883331064154
 20
2.435671598797031
 30
0.1677024
 11
15.86018872233142
 21
2.414676701103957
 31
0.1677024
 12
15.89161641999545
 22
2.446098045127957
 32
0.1677024
 13
15.90085107302768
 23
2.430883480436575
 33
0.1677024
  0
SOLID
  5
5A76
330
18
100
AcDbEntity
  8
BORDER
100
AcDbTrace
 10
15.79353455745089
 20
2.248806741057628
 30
0.1677024
 11
15.79353455745089
 21
2.274691606497628
 31
0.1677024
 12
15.91679582145089
 22
2.248806741057628
 32
0.1677024
 13
15.91679582145089
 23
2.274691606497628
 33
0.1677024
  0
SOLID
  5
5A77
330
18
100
AcDbEntity
  8
BORDER
100
AcDbTrace
 10
15.91679581371941
 20
2.296262326522116
 30
0.1677024
 11
15.79353454971941
 21
2.296262326522116
 31
0.1677024
 12
15.91679581371941
 22
2.322147191962116
 32
0.1677024
 13
15.79353454971941
 23
2.322147191962116
 33
0.1677024
  0
SOLID
  5
5A78
330
18
100
AcDbEntity
  8
BORDER
100
AcDbTrace
 10
15.79353454971941
 20
2.322763498282116
 30
0.1677024
 11
15.91679312807597
 21
2.400370751321433
 31
0.1677024
 12
15.79354373506936
 22
2.298062498281336
 32
0.1677024
 13
15.91679581371941
 23
2.374533229162116
 33
0.1677024
  0
SOLID
  5
5A79
330
18
100
AcDbEntity
  8
BORDER
100
AcDbTrace
 10
15.81003848980603
 20
2.456440744902008
 30
0.1677024
 11
15.7951289612174
 21
2.450345452023373
 31
0.1677024
 12
15.83353229243054
 22
2.43770336308991
 32
0.1677024
 13
15.82088178332503
 23
2.422578006687372
 33
0.1677024
  0
SOLID
  5
5A7A
330
18
100
AcDbEntity
  8
BORDER
100
AcDbTrace
 10
15.83353229243054
 20
2.43770336308991
 30
0.1677024
 11
15.82088178332503
 21
2.422578006687372
 31
0.1677024
 12
15.85883331064154
 22
2.435671598797031
 32
0.1677024
 13
15.86018872233142
 23
2.414676701103957
 33
0.1677024
  0
POLYLINE
  5
5A7B
330
18
100
AcDbEntity
  8
BORDER
100
AcDb2dPolyline
 66
     1
 10
0.0
 20
0.0
 30
0.1677024
 40
0.00493045056
 41
0.00493045056
  0
VERTEX
  5
62C2
330
5A7B
100
AcDbEntity
  8
BORDER
100
AcDbVertex
100
AcDb2dVertex
 10
15.89837348150257
 20
2.431283286226639
 30
0.1677024
 42
0.1790006504245718
  0
VERTEX
  5
62C3
330
5A7B
100
AcDbEntity
  8
BORDER
100
AcDbVertex
100
AcDb2dVertex
 10
15.91654691965104
 20
2.462067105502534
 30
0.1677024
 42
0.1790006504245718
  0
SEQEND
  5
62C4
330
5A7B
100
AcDbEntity
  8
BORDER
  0
SOLID
  5
5A7C
330
18
100
AcDbEntity
  8
BORDER
100
AcDbTrace
 10
15.89161641999545
 20
2.446098045127957
 30
0.1677024
 11
15.90085107302768
 21
2.430883480436575
 31
0.1677024
 12
15.90234858433021
 22
2.470291697178187
 32
0.1677024
 13
15.91832203822379
 23
2.462310286192544
 33
0.1677024
  0
POLYLINE
  5
5A7D
330
18
100
AcDbEntity
  8
BORDER
100
AcDb2dPolyline
 66
     1
 10
0.0
 20
0.0
 30
0.1677024
 40
0.0104814
 41
0.0104814
  0
VERTEX
  5
62C5
330
5A7D
100
AcDbEntity
  8
BORDER
100
AcDbVertex
100
AcDb2dVertex
 10
14.85764617023569
 20
2.512256886131337
 30
0.1677024
  0
VERTEX
  5
62C6
330
5A7D
100
AcDbEntity
  8
BORDER
100
AcDbVertex
100
AcDb2dVertex
 10
14.71300909850256
 20
2.512256886131337
 30
0.1677024
  0
SEQEND
  5
62C7
330
5A7D
100
AcDbEntity
  8
BORDER
  0
LINE
  5
5A7E
330
18
100
AcDbEntity
  8
BORDER
100
AcDbLine
 10
14.98148885264618
 20
2.517497586131336
 30
0.1677024
 11
14.92646150264618
 21
2.517497586131336
 31
0.1677024
  0
ARC
  5
5A7F
330
18
100
AcDbEntity
  8
BORDER
100
AcDbCircle
 10
15.45501087082988
 20
2.409742329861524
 30
0.1677024
 40
0.1077552562698128
100
AcDbArc
 50
58.67020583628413
 51
90.00000000000101
  0
LINE
  5
5A80
330
18
100
AcDbEntity
  8
BORDER
100
AcDbLine
 10
15.45501087082988
 20
2.517497586131336
 30
0.1677024
 11
15.33258757683973
 21
2.517497586131336
 31
0.1677024
  0
SOLID
  5
5A81
330
18
100
AcDbEntity
  8
BORDER
100
AcDbTrace
 10
15.89585936868593
 20
2.491741739202103
 30
0.1677024
 11
15.91108406692825
 21
2.501967922027458
 31
0.1677024
 12
15.8803806759669
 22
2.500859243207885
 32
0.1677024
 13
15.88300191480824
 23
2.523495035158064
 33
0.1677024
  0
POLYLINE
  5
5A82
330
18
100
AcDbEntity
  8
BORDER
100
AcDb2dPolyline
 66
     1
 10
0.0
 20
0.0
 30
0.1677024
 40
0.00493045056
 41
0.00493045056
  0
VERTEX
  5
62C8
330
5A82
100
AcDbEntity
  8
BORDER
100
AcDbVertex
100
AcDb2dVertex
 10
15.91225178861954
 20
2.496806460126451
 30
0.1677024
 42
0.2619660936757589
  0
VERTEX
  5
62C9
330
5A82
100
AcDbEntity
  8
BORDER
100
AcDbVertex
100
AcDb2dVertex
 10
15.8773345572074
 20
2.522442069484772
 30
0.1677024
 42
0.2656465770789468
  0
SEQEND
  5
62CA
330
5A82
100
AcDbEntity
  8
BORDER
  0
SOLID
  5
5A83
330
18
100
AcDbEntity
  8
BORDER
100
AcDbTrace
 10
15.8803806759669
 20
2.500859243207885
 30
0.1677024
 11
15.88300191480824
 21
2.523495035158064
 31
0.1677024
 12
15.8769940412474
 22
2.500030566978762
 32
0.1677024
 13
15.8769940412474
 23
2.524962330760263
 33
0.1677024
  0
POLYLINE
  5
5A84
330
18
100
AcDbEntity
  8
BORDER
100
AcDb2dPolyline
 66
     1
 10
0.0
 20
0.0
 30
0.1677024
 40
0.00493045056
 41
0.00493045056
  0
VERTEX
  5
62CB
330
5A84
100
AcDbEntity
  8
BORDER
100
AcDbVertex
100
AcDb2dVertex
 10
15.83104605364547
 20
2.520459868369472
 30
0.1677024
 42
0.2841209316902218
  0
VERTEX
  5
62CC
330
5A84
100
AcDbEntity
  8
BORDER
100
AcDbVertex
100
AcDb2dVertex
 10
15.79543783155204
 20
2.490673265252777
 30
0.1677024
 42
0.2888447634665965
  0
SEQEND
  5
62CD
330
5A84
100
AcDbEntity
  8
BORDER
  0
SOLID
  5
5A85
330
18
100
AcDbEntity
  8
BORDER
100
AcDbTrace
 10
15.82291490085985
 20
2.499107795052449
 30
0.1677024
 11
15.81049029370266
 21
2.512652890338303
 31
0.1677024
 12
15.82811793283066
 22
2.500440457653153
 32
0.1677024
 13
15.8265147577136
 23
2.52177762388302
 33
0.1677024
  0
SOLID
  5
5A86
330
18
100
AcDbEntity
  8
BORDER
100
AcDbTrace
 10
15.82811793283066
 20
2.500440457653153
 30
0.1677024
 11
15.8265147577136
 21
2.52177762388302
 31
0.1677024
 12
15.83150143558184
 22
2.498894752717687
 32
0.1677024
 13
15.83150143558184
 23
2.523008868646434
 33
0.1677024
  0
LINE
  5
5E0B
330
18
100
AcDbEntity
  8
S1
100
AcDbLine
 10
7.462783003292033
 20
7.547916265700345
 30
0.0
 11
8.272783003292031
 21
7.547916265700345
 31
0.0
  0
LINE
  5
5E0C
330
18
100
AcDbEntity
  8
S1
100
AcDbLine
 10
7.462783003292033
 20
5.457666265700329
 30
0.0
 11
8.300187225143394
 21
5.457666265700329
 31
0.0
  0
LINE
  5
5E0D
330
18
100
AcDbEntity
  8
S1
100
AcDbLine
 10
7.462783003292033
 20
7.547916265700345
 30
0.0
 11
7.462783003292033
 21
5.457666265700329
 31
0.0
  0
CIRCLE
  5
5E0E
330
18
100
AcDbEntity
  8
S1
  6
HIDDEN
100
AcDbCircle
 10
13.90220400766454
 20
6.479166265700341
 30
0.0
 40
0.7420192378864848
  0
CIRCLE
  5
5E0F
330
18
100
AcDbEntity
  8
S1
100
AcDbCircle
 10
13.90220400766454
 20
6.479166265700341
 30
0.0
 40
0.768000000000022
  0
CIRCLE
  5
5E10
330
18
100
AcDbEntity
  8
S1
100
AcDbCircle
 10
13.90220400766454
 20
6.479166265700341
 30
0.0
 40
0.9128654273188221
  0
ARC
  5
5E11
330
18
100
AcDbEntity
  8
S1
100
AcDbCircle
 10
13.90220400766454
 20
6.479166265700341
 30
0.0
 40
1.06875
100
AcDbArc
 50
287.1006899969297
 51
252.8993100030693
  0
LINE
  5
5E12
330
18
100
AcDbEntity
  8
S1
100
AcDbLine
 10
8.388495145934852
 20
7.224666265700347
 30
0.0
 11
8.388495145934852
 21
5.733666265700347
 31
0.0
  0
LINE
  5
5E13
330
18
100
AcDbEntity
  8
S1
100
AcDbLine
 10
8.377783003292032
 20
7.220166265700346
 30
0.0
 11
8.377783003292032
 21
5.738166265700347
 31
0.0
  0
LINE
  5
5E14
330
18
100
AcDbEntity
  8
S1
100
AcDbLine
 10
8.362783003292035
 20
7.235166265700343
 30
0.0
 11
8.362783003292035
 21
5.733666265700347
 31
0.0
  0
LINE
  5
5E15
330
18
100
AcDbEntity
  8
S1
100
AcDbLine
 10
8.272783003292031
 20
7.547916265700345
 30
0.0
 11
8.272783003292031
 21
5.457666265700329
 31
0.0
  0
LINE
  5
5E16
330
18
100
AcDbEntity
  8
S1
100
AcDbLine
 10
8.512783003292032
 20
7.22118550358681
 30
0.0
 11
8.512783003292032
 21
5.737147027813878
 31
0.0
  0
LINE
  5
5E17
330
18
100
AcDbEntity
  8
S1
100
AcDbLine
 10
8.388495145934847
 20
5.733666265700347
 30
0.0
 11
8.510773384348798
 21
5.733666265700347
 31
0.0
  0
LINE
  5
5E18
330
18
100
AcDbEntity
  8
S1
100
AcDbLine
 10
8.392783003292029
 20
5.711166265700346
 30
0.0
 11
8.497783003292035
 21
5.711166265700346
 31
0.0
  0
LINE
  5
5E19
330
18
100
AcDbEntity
  8
S1
  6
CONTINUOUS
100
AcDbLine
 10
7.552783003292031
 20
5.457666265700335
 30
0.0
 11
7.690783003292034
 21
5.457666265700329
 31
0.0
  0
LINE
  5
5E1A
330
18
100
AcDbEntity
  8
S1
  6
CONTINUOUS
100
AcDbLine
 10
8.04478300329203
 20
5.457666265700329
 30
0.0
 11
8.182783003292028
 21
5.457666265700329
 31
0.0
  0
LINE
  5
5E1B
330
18
100
AcDbEntity
  8
S1
100
AcDbLine
 10
8.362783003292035
 20
5.723166265700345
 30
0.0
 11
8.362783003292035
 21
5.566085333793084
 31
0.0
  0
LINE
  5
5E1C
330
18
100
AcDbEntity
  8
S1
100
AcDbLine
 10
8.300187225143394
 20
5.457666265700329
 30
0.0
 11
8.362783003292035
 21
5.566085333793084
 31
0.0
  0
LINE
  5
5E1D
330
18
100
AcDbEntity
  8
S1
100
AcDbLine
 10
8.392783003292034
 20
5.723166265700345
 30
0.0
 11
8.392783003292029
 21
5.711166265700346
 31
0.0
  0
ARC
  5
5E1E
330
18
100
AcDbEntity
  8
S1
100
AcDbCircle
 10
8.377783003292032
 20
5.723166265700345
 30
0.0
 40
0.0149999999999997
100
AcDbArc
 50
0.0000000000050889
 51
179.9999999999973
  0
LINE
  5
5E1F
330
18
100
AcDbEntity
  8
S1
100
AcDbLine
 10
8.497783003292035
 20
5.711166265700346
 30
0.0
 11
8.512783003292032
 21
5.737147027813878
 31
0.0
  0
LINE
  5
5E20
330
18
100
AcDbEntity
  8
S1
100
AcDbLine
 10
14.21720400766456
 20
5.457666265700324
 30
0.0
 11
13.5872040076645
 21
5.457666265700324
 31
0.0
  0
LINE
  5
5E21
330
18
100
AcDbEntity
  8
S1
100
AcDbLine
 10
14.21720400766453
 20
5.457666265700324
 30
0.0
 11
13.58720400766453
 21
5.457666265700324
 31
0.0
  0
LINE
  5
5E22
330
18
100
AcDbEntity
  8
S1
100
AcDbLine
 10
14.21647190691604
 20
5.457666265700324
 30
0.0
 11
13.58793610841301
 21
5.457666265700329
 31
0.0
  0
LINE
  5
5E23
330
18
100
AcDbEntity
  8
S1
  6
CONTINUOUS
100
AcDbLine
 10
13.58720400766452
 20
5.457666265700335
 30
0.0
 11
13.72520400766453
 21
5.457666265700329
 31
0.0
  0
LINE
  5
5E25
330
18
100
AcDbEntity
  8
S1
100
AcDbLine
 10
8.272783003292031
 20
7.547916265700345
 30
0.0
 11
8.362783003292035
 21
7.392031693019148
 31
0.0
  0
LINE
  5
5E26
330
18
100
AcDbEntity
  8
S1
100
AcDbLine
 10
8.388495145934847
 20
7.224666265700347
 30
0.0
 11
8.510773384348798
 21
7.224666265700347
 31
0.0
  0
LINE
  5
5E27
330
18
100
AcDbEntity
  8
S1
100
AcDbLine
 10
8.392783003292029
 20
7.247166265700347
 30
0.0
 11
8.497783003292035
 21
7.247166265700347
 31
0.0
  0
ARC
  5
5E28
330
18
100
AcDbEntity
  8
S1
100
AcDbCircle
 10
8.377783003292032
 20
7.235166265700343
 30
0.0
 40
0.0149999999999997
100
AcDbArc
 50
180.0
 51
0.0
  0
LINE
  5
5E29
330
18
100
AcDbEntity
  8
S1
100
AcDbLine
 10
8.392783003292029
 20
7.235166265700343
 30
0.0
 11
8.392783003292029
 21
7.247166265700347
 31
0.0
  0
LINE
  5
5E2A
330
18
100
AcDbEntity
  8
S1
100
AcDbLine
 10
8.362783003292035
 20
7.235166265700343
 30
0.0
 11
8.362783003292035
 21
7.392031693019148
 31
0.0
  0
LINE
  5
5E2B
330
18
100
AcDbEntity
  8
S1
100
AcDbLine
 10
8.497783003292035
 20
7.247166265700347
 30
0.0
 11
8.512783003292032
 21
7.22118550358681
 31
0.0
  0
CIRCLE
  5
5E2C
330
18
100
AcDbEntity
  8
S1
100
AcDbCircle
 10
13.90220400766454
 20
6.479166265700341
 30
0.0
 40
0.261
  0
CIRCLE
  5
5EE5
330
18
100
AcDbEntity
  8
S2
100
AcDbCircle
 10
13.90220400766455
 20
6.479166265700349
 30
0.0
 40
0.191476775984686
  0
CIRCLE
  5
5EE6
330
18
100
AcDbEntity
  8
S2
100
AcDbCircle
 10
13.90220400766455
 20
6.479166265700349
 30
0.0
 40
0.239250000000002
  0
LINE
  5
5F49
330
18
100
AcDbEntity
  8
S1
100
AcDbLine
 39
0.135
 10
11.30278300329203
 20
5.803132536779758
 30
0.0
 11
11.30174927437144
 21
5.804166265700343
 31
0.0
  0
LINE
  5
5F4A
330
18
100
AcDbEntity
  8
S1
100
AcDbLine
 39
0.135
 10
11.30278300329203
 20
7.154166265700341
 30
0.0
 11
11.18278300329203
 21
7.154166265700341
 31
0.0
  0
LINE
  5
5F4B
330
18
100
AcDbEntity
  8
S1
100
AcDbLine
 39
0.135
 10
11.30278300329203
 20
5.804166265700343
 30
0.0
 11
11.18278300329203
 21
5.804166265700343
 31
0.0
  0
LINE
  5
5F4E
330
18
100
AcDbEntity
  8
S1
100
AcDbLine
 10
11.30278300329203
 20
7.255416265700343
 30
0.0
 11
11.30278300329203
 21
5.702916265700345
 31
0.0
  0
LINE
  5
5F4F
330
18
100
AcDbEntity
  8
S1
100
AcDbLine
 10
11.18278300329203
 20
5.702916265700345
 30
0.0
 11
11.18278300329203
 21
7.255416265700343
 31
0.0
  0
POLYLINE
  5
5F50
330
18
100
AcDbEntity
  8
S1
100
AcDb2dPolyline
 66
     1
 10
0.0
 20
0.0
 30
0.0
 70
     1
1001
ACAD
1000
ASC_BOUNDS
1002
{
1070
    19
1005
0
1002
}
  0
VERTEX
  5
62CE
330
5F50
100
AcDbEntity
  8
S1
100
AcDbVertex
100
AcDb2dVertex
 10
9.637783003292032
 20
5.586666265700345
 30
0.0
  0
VERTEX
  5
62CF
330
5F50
100
AcDbEntity
  8
S1
100
AcDbVertex
100
AcDb2dVertex
 10
9.637783003292032
 20
7.371666265700343
 30
0.0
  0
VERTEX
  5
62D0
330
5F50
100
AcDbEntity
  8
S1
100
AcDbVertex
100
AcDb2dVertex
 10
10.05778300329203
 20
7.371666265700343
 30
0.0
  0
VERTEX
  5
62D1
330
5F50
100
AcDbEntity
  8
S1
100
AcDbVertex
100
AcDb2dVertex
 10
10.05778300329203
 20
5.586666265700345
 30
0.0
  0
SEQEND
  5
62D2
330
5F50
100
AcDbEntity
  8
S1
  0
LINE
  5
5F51
330
18
100
AcDbEntity
  8
S1
100
AcDbLine
 10
9.637783003292032
 20
5.726541265700335
 30
0.0
 11
10.05778300329203
 21
5.726541265700335
 31
0.0
  0
LINE
  5
5F52
330
18
100
AcDbEntity
  8
S1
  6
HIDDEN
100
AcDbLine
 10
9.637783003292037
 20
5.704041265700338
 30
0.0
 11
10.05778300329203
 21
5.704041265700338
 31
0.0
  0
LINE
  5
5F53
330
18
100
AcDbEntity
  8
S1
100
AcDbLine
 10
11.30278300329203
 20
5.702916265700345
 30
0.0
 11
11.18278300329203
 21
5.702916265700345
 31
0.0
  0
LINE
  5
5F54
330
18
100
AcDbEntity
  8
S1
  6
HIDDEN
100
AcDbLine
 39
0.135
 10
11.30278300329203
 20
5.726999975691985
 30
0.0
 11
11.18278300329203
 21
5.726999975691985
 31
0.0
  0
LINE
  5
5F55
330
18
100
AcDbEntity
  8
S1
  6
HIDDEN
100
AcDbLine
 10
9.637783003292037
 20
7.254291265700354
 30
0.0
 11
10.05778300329203
 21
7.254291265700354
 31
0.0
  0
LINE
  5
5F56
330
18
100
AcDbEntity
  8
S1
100
AcDbLine
 10
9.637783003292032
 20
7.231791265700355
 30
0.0
 11
10.05778300329203
 21
7.231791265700355
 31
0.0
  0
LINE
  5
5F57
330
18
100
AcDbEntity
  8
S1
  6
HIDDEN
100
AcDbLine
 39
0.135
 10
11.30278300329203
 20
7.238832555708702
 30
0.0
 11
11.18278300329203
 21
7.238832555708702
 31
0.0
  0
LINE
  5
5F58
330
18
100
AcDbEntity
  8
S1
100
AcDbLine
 10
11.18278300329203
 20
7.255416265700343
 30
0.0
 11
11.30278300329203
 21
7.255416265700343
 31
0.0
  0
LINE
  5
5F59
330
18
100
AcDbEntity
  8
D1
  6
CENTER
 48
0.5
100
AcDbLine
 10
8.66278300329203
 20
6.479166265700344
 30
0.0
 11
9.487783003292033
 21
6.479166265700344
 31
0.0
  0
LINE
  5
5F85
330
18
100
AcDbEntity
  8
S2
100
AcDbLine
 10
6.630283003292035
 20
5.747541265700347
 30
0.0
 11
7.260283003292034
 21
5.747541265700344
 31
0.0
  0
LINE
  5
5F86
330
18
100
AcDbEntity
  8
S2
100
AcDbLine
 10
7.097517241136021
 20
6.539842789167134
 30
0.0
 11
6.609452738187215
 21
6.447005686552625
 31
0.0
  0
LINE
  5
5F87
330
18
100
AcDbEntity
  8
S2
100
AcDbLine
 10
7.091024052717871
 20
6.415489742233556
 30
0.0
 11
6.641918680277878
 21
6.300561285484624
 31
0.0
  0
LINE
  5
5F88
330
18
100
AcDbEntity
  8
S2
100
AcDbLine
 10
6.630283003292035
 20
6.299296751851376
 30
0.0
 11
6.630283003292035
 21
5.747541265700347
 31
0.0
  0
ARC
  5
5F8A
330
18
100
AcDbEntity
  8
S2
100
AcDbCircle
 10
6.628018339289548
 20
6.374300617652182
 30
0.0
 40
0.0750380476032617
100
AcDbArc
 50
104.3246470605813
 51
280.6753529394181
  0
LINE
  5
5F8B
330
18
100
AcDbEntity
  8
S2
100
AcDbLine
 10
7.204033003292035
 20
5.891166265700343
 30
0.0
 11
7.204033003292035
 21
6.101166265700342
 31
0.0
  0
CIRCLE
  5
5F8C
330
18
100
AcDbEntity
  8
S2
100
AcDbCircle
 10
6.892783003292036
 20
6.029166265700346
 30
0.0
 40
0.06
  0
LINE
  5
5F8E
330
18
100
AcDbEntity
  8
S1
100
AcDbLine
 10
7.327783003292037
 20
5.457666265700328
 30
0.0
 11
7.327783003292029
 21
7.547916265700346
 31
0.0
1001
ACAD
1000
ASC_BOUNDS
1002
{
1070
    19
1002
}
  0
LINE
  5
5F90
330
18
100
AcDbEntity
  8
S2
100
AcDbLine
 10
7.260283003292036
 20
5.891166265700343
 30
0.0
 11
7.260283003292034
 21
5.662041265700346
 31
0.0
  0
LINE
  5
5F91
330
18
100
AcDbEntity
  8
S2
100
AcDbLine
 10
7.327783003292035
 20
5.891166265700343
 30
0.0
 11
7.204033003292035
 21
5.891166265700343
 31
0.0
  0
LINE
  5
5F92
330
18
100
AcDbEntity
  8
S2
100
AcDbLine
 10
7.327783003292035
 20
5.662041265700346
 30
0.0
 11
7.260283003292034
 21
5.662041265700346
 31
0.0
  0
LINE
  5
5F93
330
18
100
AcDbEntity
  8
S2
100
AcDbLine
 10
6.688063139029248
 20
6.31079126570035
 30
0.0
 11
7.260283003292038
 21
6.310791265700347
 31
0.0
  0
LINE
  5
5F94
330
18
100
AcDbEntity
  8
S2
100
AcDbLine
 10
7.154270646926947
 20
6.608916265700345
 30
0.0
 11
7.178692301986789
 21
6.346416265700347
 31
0.0
  0
LINE
  5
5F95
330
18
100
AcDbEntity
  8
S2
100
AcDbLine
 10
7.094270646926943
 20
6.608916265700345
 30
0.0
 11
7.266191641626702
 21
6.608916265700348
 31
0.0
  0
LINE
  5
5F96
330
18
100
AcDbEntity
  8
S2
100
AcDbLine
 10
7.266191641626702
 20
6.34641626570035
 30
0.0
 11
7.094270646926943
 21
6.346416265700347
 31
0.0
  0
LINE
  5
5F97
330
18
100
AcDbEntity
  8
S2
100
AcDbLine
 10
7.094270646926943
 20
6.608916265700345
 30
0.0
 11
7.118692301986785
 21
6.346416265700347
 31
0.0
  0
LINE
  5
5F98
330
18
100
AcDbEntity
  8
S2
100
AcDbLine
 10
7.124270646926948
 20
6.608916265700345
 30
0.0
 11
7.148692301986784
 21
6.346416265700347
 31
0.0
  0
LINE
  5
5F99
330
18
100
AcDbEntity
  8
S2
100
AcDbLine
 10
7.094270646926943
 20
6.346416265700347
 30
0.0
 11
7.094270646926943
 21
6.608916265700345
 31
0.0
  0
LINE
  5
5F9A
330
18
100
AcDbEntity
  8
S2
100
AcDbLine
 10
7.266191641626702
 20
6.239916265700345
 30
0.0
 11
7.266191641626702
 21
6.715416265700345
 31
0.0
  0
LINE
  5
5F9B
330
18
100
AcDbEntity
  8
S2
100
AcDbLine
 10
7.214270646926946
 20
6.608916265700345
 30
0.0
 11
7.238692301986787
 21
6.346416265700347
 31
0.0
  0
LINE
  5
5F9C
330
18
100
AcDbEntity
  8
S2
100
AcDbLine
 10
7.244270646926946
 20
6.608916265700345
 30
0.0
 11
7.266191641626702
 21
6.373295006838658
 31
0.0
  0
LINE
  5
5F9D
330
18
100
AcDbEntity
  8
S2
100
AcDbLine
 10
7.184270646926947
 20
6.608916265700345
 30
0.0
 11
7.208692301986788
 21
6.346416265700347
 31
0.0
  0
LINE
  5
5F9F
330
18
100
AcDbEntity
  8
S2
100
AcDbLine
 10
7.260283003292038
 20
6.346416265700355
 30
0.0
 11
7.260283003292036
 21
6.101166265700344
 31
0.0
  0
LINE
  5
5FA0
330
18
100
AcDbEntity
  8
S2
100
AcDbLine
 10
7.327783003292035
 20
6.239916265700342
 30
0.0
 11
7.266191641626702
 21
6.239916265700345
 31
0.0
  0
LINE
  5
5FA1
330
18
100
AcDbEntity
  8
S2
100
AcDbLine
 10
7.266191641626702
 20
6.715416265700345
 30
0.0
 11
7.327783003292035
 21
6.715416265700348
 31
0.0
  0
LINE
  5
5FA4
330
18
100
AcDbEntity
  8
S1
100
AcDbLine
 10
7.327783003292031
 20
7.547916265700345
 30
0.0
 11
7.327783003292031
 21
7.385916265700349
 31
0.0
  0
LINE
  5
5FA6
330
18
100
AcDbEntity
  8
S2
100
AcDbLine
 10
7.20403300329203
 20
7.356666265700343
 30
0.0
 11
7.20403300329203
 21
7.551666265700342
 31
0.0
  0
LINE
  5
5FA9
330
18
100
AcDbEntity
  8
S1
  6
CONTINUOUS
100
AcDbLine
 10
7.462783003292027
 20
7.547916265700345
 30
0.0
 11
7.327783003292029
 21
7.547916265700346
 31
0.0
  0
LINE
  5
5FAA
330
18
100
AcDbEntity
  8
S2
100
AcDbLine
 10
7.327783003292029
 20
7.551666265700342
 30
0.0
 11
7.204033003292032
 21
7.551666265700342
 31
0.0
  0
LINE
  5
5FAF
330
18
100
AcDbEntity
  8
S2
100
AcDbLine
 10
7.327783003292035
 20
6.101166265700343
 30
0.0
 11
7.204033003292035
 21
6.101166265700343
 31
0.0
  0
LINE
  5
5FB0
330
18
100
AcDbEntity
  8
S1
  6
CONTINUOUS
100
AcDbLine
 10
7.462783003292038
 20
5.457666265700329
 30
0.0
 11
7.327783003292037
 21
5.457666265700329
 31
0.0
  0
LINE
  5
5FB1
330
18
100
AcDbEntity
  8
S1
100
AcDbLine
 10
7.462783003292038
 20
5.457666265700328
 30
0.0
 11
7.462783003292031
 21
7.547916265700346
 31
0.0
1001
ACAD
1000
ASC_BOUNDS
1002
{
1070
    19
1002
}
  0
LINE
  5
5FB5
330
18
100
AcDbEntity
  8
S2
  6
CONTINUOUS
100
AcDbLine
 10
7.327783003292031
 20
7.319166265700346
 30
0.0
 11
6.015283003292031
 21
7.319166265700346
 31
0.0
  0
LINE
  5
5FB6
330
18
100
AcDbEntity
  8
S2
  6
CONTINUOUS
100
AcDbLine
 10
6.015283003292031
 20
7.307916265700344
 30
0.0
 11
6.015283003292031
 21
6.610416265700344
 31
0.0
  0
LINE
  5
5FB7
330
18
100
AcDbEntity
  8
S2
  6
CONTINUOUS
100
AcDbLine
 10
6.015283003292031
 20
6.599166265700343
 30
0.0
 11
7.094270646926942
 21
6.599166265700343
 31
0.0
  0
LINE
  5
5FB8
330
18
100
AcDbEntity
  8
S2
100
AcDbLine
 10
7.327783003292029
 20
7.356666265700343
 30
0.0
 11
7.204033003292032
 21
7.356666265700343
 31
0.0
  0
LINE
  5
603C
330
18
100
AcDbEntity
  8
S1
100
AcDbLine
 10
2.047951031189676
 20
5.457966265700347
 30
0.0
 11
2.678433774807626
 21
5.457966265700345
 31
0.0
  0
ARC
  5
603D
330
18
100
AcDbEntity
  8
S1
100
AcDbCircle
 10
2.363192402998655
 20
6.479166265700344
 30
0.0
 40
1.06875
100
AcDbArc
 50
287.1552999394493
 51
252.8447000605499
  0
TEXT
  5
603E
330
18
100
AcDbEntity
  8
SILK-SCREEN
100
AcDbText
 10
2.069894312957727
 20
5.560416265700343
 30
0.0
 40
0.09
  1
OUTPUT
  7
BLOCK
 72
     1
 11
2.363192402998655
 21
5.560416265700343
 31
0.0
100
AcDbText
  0
CIRCLE
  5
603F
330
18
100
AcDbEntity
  8
S2
100
AcDbCircle
 10
2.363192402998655
 20
6.959166265700345
 30
0.0
 40
0.3899999999999997
  0
INSERT
  5
6041
330
18
100
AcDbEntity
  8
SILK-SCREEN
100
AcDbBlockReference
  2
LOGO
 10
1.365692402998654
 20
6.419166265700348
 30
0.0
 41
0.4500000000000011
 42
0.4500000000000011
 43
0.45
  0
TEXT
  5
6042
330
18
100
AcDbEntity
  8
SILK-SCREEN
100
AcDbText
 10
1.596800861388832
 20
6.914166265700345
 30
0.0
 40
0.09
  1
BAT
  7
BLOCK
 72
     2
 11
1.883192402998655
 21
6.959166265700345
 31
0.0
100
AcDbText
 73
     2
  0
INSERT
  5
6044
330
18
100
AcDbEntity
  8
SILK-SCREEN
100
AcDbBlockReference
  2
CE-MARK
 10
1.815692402998655
 20
5.886666265700345
 30
0.0
 41
0.75
 42
0.75
 43
0.75
  0
TEXT
  5
6045
330
18
100
AcDbEntity
  8
SILK-SCREEN
100
AcDbText
 10
1.365692402998654
 20
6.231666265700345
 30
0.0
 40
0.1125
  1
DET210
  7
BLOCK
100
AcDbText
  0
TEXT
  5
6048
330
18
100
AcDbEntity
  8
SILK-SCREEN
100
AcDbText
 10
2.77790761445841
 20
6.070416265700345
 30
0.0
 40
0.1125
  1
OFF
  7
BLOCK
 72
     1
 11
2.948192402998656
 21
6.182916265700344
 31
0.0
100
AcDbText
 73
     3
  0
TEXT
  5
6049
330
18
100
AcDbEntity
  8
SILK-SCREEN
100
AcDbText
 10
2.817274940515709
 20
6.775416265700344
 30
0.0
 40
0.1125
  1
ON
  7
BLOCK
 72
     1
 11
2.948192402998656
 21
6.775416265700344
 31
0.0
100
AcDbText
  0
LINE
  5
6060
330
18
100
AcDbEntity
  8
S2
100
AcDbLine
 10
3.064442402998657
 20
6.680517172080226
 30
0.0
 11
2.831942402998655
 21
6.680517172080226
 31
0.0
  0
ARC
  5
6061
330
18
100
AcDbEntity
  8
S2
100
AcDbCircle
 10
2.948192402998656
 20
6.479166265700344
 30
0.0
 40
0.06
100
AcDbArc
 50
8.963417098561322
 51
171.0365829014387
  0
ARC
  5
6062
330
18
100
AcDbEntity
  8
S2
100
AcDbCircle
 10
2.948192402998656
 20
6.392518829465969
 30
0.0
 40
0.0735
100
AcDbArc
 50
171.036582901439
 51
8.963417098560704
  0
ARC
  5
6063
330
18
100
AcDbEntity
  8
S2
100
AcDbCircle
 10
2.948192402998656
 20
6.479166265700344
 30
0.0
 40
0.09375
100
AcDbArc
 50
318.7552365981172
 51
221.2447634018828
  0
ARC
  5
6064
330
18
100
AcDbEntity
  8
S2
100
AcDbCircle
 10
2.948192402998656
 20
6.479166265700344
 30
0.0
 40
0.138
100
AcDbArc
 50
297.8254366769887
 51
242.1745633230113
  0
LINE
  5
6065
330
18
100
AcDbEntity
  8
S2
100
AcDbLine
 10
2.831942402998656
 20
6.277815359320467
 30
0.0
 11
3.064442402998657
 21
6.277815359320462
 31
0.0
  0
CIRCLE
  5
6066
330
18
100
AcDbEntity
  8
S2
100
AcDbCircle
 10
2.948192402998656
 20
6.479166265700344
 30
0.0
 40
0.1797773495880177
  0
CIRCLE
  5
6067
330
18
100
AcDbEntity
  8
S2
100
AcDbCircle
 10
2.964692402998657
 20
6.473166265700345
 30
0.0
 40
0.14625
  0
LINE
  5
6068
330
18
100
AcDbEntity
  8
S2
100
AcDbLine
 10
2.875589983423637
 20
6.40397040891393
 30
0.0
 11
2.888925121712926
 21
6.488514493821129
 31
0.0
  0
LINE
  5
6069
330
18
100
AcDbEntity
  8
S2
100
AcDbLine
 10
2.715692402998655
 20
6.479166265700344
 30
0.0
 11
2.831942402998656
 21
6.277815359320467
 31
0.0
  0
LINE
  5
606A
330
18
100
AcDbEntity
  8
S2
100
AcDbLine
 10
2.831942402998655
 20
6.680517172080226
 30
0.0
 11
2.715692402998655
 21
6.479166265700344
 31
0.0
  0
LINE
  5
606B
330
18
100
AcDbEntity
  8
S2
100
AcDbLine
 10
3.007459684284386
 20
6.488514493821129
 30
0.0
 11
3.020794822573675
 21
6.40397040891393
 31
0.0
  0
LINE
  5
606C
330
18
100
AcDbEntity
  8
S2
100
AcDbLine
 10
3.064442402998657
 20
6.277815359320462
 30
0.0
 11
3.180692402998657
 21
6.479166265700344
 31
0.0
  0
LINE
  5
606D
330
18
100
AcDbEntity
  8
S2
100
AcDbLine
 10
3.180692402998657
 20
6.479166265700344
 30
0.0
 11
3.064442402998657
 21
6.680517172080226
 31
0.0
  0
CIRCLE
  5
607D
330
18
100
AcDbEntity
  8
S2
100
AcDbCircle
 10
2.363192402998655
 20
6.036666265700344
 30
0.0
 40
0.05025
  0
CIRCLE
  5
607E
330
18
100
AcDbEntity
  8
S2
100
AcDbCircle
 10
2.363192402998655
 20
6.036666265700344
 30
0.0
 40
0.13125
  0
CIRCLE
  5
607F
330
18
100
AcDbEntity
  8
S2
100
AcDbCircle
 10
2.363192402998655
 20
6.036666265700344
 30
0.0
 40
0.283875
  0
CIRCLE
  5
6080
330
18
100
AcDbEntity
  8
S2
100
AcDbCircle
 10
2.363192402998655
 20
6.036666265700344
 30
0.0
 40
0.253875
  0
CIRCLE
  5
6081
330
18
100
AcDbEntity
  8
S2
100
AcDbCircle
 10
2.363192402998655
 20
6.036666265700344
 30
0.0
 40
0.36675
  0
ARC
  5
6082
330
18
100
AcDbEntity
  8
S2
100
AcDbCircle
 10
2.363192402998655
 20
6.036666265700344
 30
0.0
 40
0.32625
100
AcDbArc
 50
349.8042640531625
 51
10.195735946838
  0
LINE
  5
6083
330
18
100
AcDbEntity
  8
S2
100
AcDbLine
 10
2.641131160866283
 20
5.978916265700343
 30
0.0
 11
2.684290518844887
 21
5.978916265700343
 31
0.0
  0
LINE
  5
6084
330
18
100
AcDbEntity
  8
S2
100
AcDbLine
 10
2.641131160866283
 20
6.094416265700346
 30
0.0
 11
2.684290518844887
 21
6.094416265700346
 31
0.0
  0
ARC
  5
6085
330
18
100
AcDbEntity
  8
S2
100
AcDbCircle
 10
2.363192402998655
 20
6.036666265700344
 30
0.0
 40
0.32625
100
AcDbArc
 50
169.8042640531619
 51
190.1957359468374
  0
LINE
  5
6086
330
18
100
AcDbEntity
  8
S2
100
AcDbLine
 10
2.042094287152423
 20
5.978916265700343
 30
0.0
 11
2.085253645131027
 21
5.978916265700343
 31
0.0
  0
LINE
  5
6087
330
18
100
AcDbEntity
  8
S2
100
AcDbLine
 10
2.042094287152423
 20
6.094416265700346
 30
0.0
 11
2.085253645131027
 21
6.094416265700346
 31
0.0
  0
CIRCLE
  5
6089
330
18
100
AcDbEntity
  8
S2
100
AcDbCircle
 10
2.363192402998655
 20
6.959166265700345
 30
0.0
 40
0.3749999999999996
  0
LINE
  5
60BD
330
18
100
AcDbEntity
  8
S1
  6
CONTINUOUS
100
AcDbLine
 10
7.58278300329203
 20
5.172666265700327
 30
0.0
 11
8.152783003292034
 21
5.172666265700325
 31
0.0
  0
LINE
  5
60BE
330
18
100
AcDbEntity
  8
S1
  6
CONTINUOUS
100
AcDbLine
 10
8.182783003292028
 20
5.457666265700327
 30
0.0
 11
8.182783003292033
 21
5.202666265700324
 31
0.0
  0
LINE
  5
60BF
330
18
100
AcDbEntity
  8
S1
  6
CONTINUOUS
100
AcDbLine
 10
8.152783003292034
 20
5.172666265700325
 30
0.0
 11
8.182783003292033
 21
5.202666265700324
 31
0.0
  0
LINE
  5
60C0
330
18
100
AcDbEntity
  8
S1
  6
CONTINUOUS
100
AcDbLine
 10
7.552783003292031
 20
5.457666265700329
 30
0.0
 11
7.552783003292031
 21
5.202666265700327
 31
0.0
  0
LINE
  5
60C1
330
18
100
AcDbEntity
  8
S1
  6
CONTINUOUS
100
AcDbLine
 10
7.58278300329203
 20
5.172666265700327
 30
0.0
 11
7.552783003292031
 21
5.202666265700327
 31
0.0
  0
LINE
  5
60C3
330
18
100
AcDbEntity
  8
S1
  6
CONTINUOUS
100
AcDbLine
 10
13.58720400766453
 20
5.457666265700324
 30
0.0
 11
13.58720400766453
 21
5.202666265700321
 31
0.0
  0
LINE
  5
60C4
330
18
100
AcDbEntity
  8
S1
  6
CONTINUOUS
100
AcDbLine
 10
14.21720400766453
 20
5.457666265700321
 30
0.0
 11
14.21720400766453
 21
5.202666265700319
 31
0.0
  0
LINE
  5
60C5
330
18
100
AcDbEntity
  8
S1
  6
CONTINUOUS
100
AcDbLine
 10
13.61720400766453
 20
5.172666265700322
 30
0.0
 11
13.58720400766453
 21
5.202666265700321
 31
0.0
  0
LINE
  5
60C6
330
18
100
AcDbEntity
  8
S1
  6
CONTINUOUS
100
AcDbLine
 10
13.61720400766453
 20
5.172666265700322
 30
0.0
 11
14.18720400766453
 21
5.172666265700319
 31
0.0
  0
LINE
  5
60C7
330
18
100
AcDbEntity
  8
S1
  6
CONTINUOUS
100
AcDbLine
 10
14.18720400766453
 20
5.172666265700319
 30
0.0
 11
14.21720400766453
 21
5.202666265700319
 31
0.0
  0
LINE
  5
60CE
330
18
100
AcDbEntity
  8
S1
  6
CONTINUOUS
100
AcDbLine
 10
2.048192402998654
 20
5.457966265700347
 30
0.0
 11
2.048192402998654
 21
5.202966265700345
 31
0.0
  0
LINE
  5
60CF
330
18
100
AcDbEntity
  8
S1
  6
CONTINUOUS
100
AcDbLine
 10
2.678192402998651
 20
5.457966265700345
 30
0.0
 11
2.678192402998656
 21
5.202966265700342
 31
0.0
  0
LINE
  5
60D0
330
18
100
AcDbEntity
  8
S1
  6
CONTINUOUS
100
AcDbLine
 10
2.078192402998653
 20
5.172966265700345
 30
0.0
 11
2.048192402998654
 21
5.202966265700345
 31
0.0
  0
LINE
  5
60D1
330
18
100
AcDbEntity
  8
S1
  6
CONTINUOUS
100
AcDbLine
 10
2.078192402998653
 20
5.172966265700345
 30
0.0
 11
2.648192402998657
 21
5.172966265700343
 31
0.0
  0
LINE
  5
60D2
330
18
100
AcDbEntity
  8
S1
  6
CONTINUOUS
100
AcDbLine
 10
2.648192402998657
 20
5.172966265700343
 30
0.0
 11
2.678192402998656
 21
5.202966265700342
 31
0.0
  0
LINE
  5
60E5
330
18
100
AcDbEntity
  8
S2
100
AcDbLine
 10
2.363192402998655
 20
7.373920131782453
 30
0.0
 11
2.300192402998655
 21
7.410293198741398
 31
0.0
  0
CIRCLE
  5
60E6
330
18
100
AcDbEntity
  8
S2
100
AcDbCircle
 10
2.363192402998655
 20
7.446666265700343
 30
0.0
 40
0.10125
  0
LINE
  5
60E7
330
18
100
AcDbEntity
  8
S2
100
AcDbLine
 10
2.300192402998655
 20
7.483039332659294
 30
0.0
 11
2.363192402998652
 21
7.519412399618239
 31
0.0
  0
LINE
  5
60E8
330
18
100
AcDbEntity
  8
S2
100
AcDbLine
 10
2.300192402998655
 20
7.410293198741401
 30
0.0
 11
2.300192402998655
 21
7.483039332659297
 31
0.0
  0
LINE
  5
60E9
330
18
100
AcDbEntity
  8
S2
100
AcDbLine
 10
2.426192402998652
 20
7.483039332659289
 30
0.0
 11
2.426192402998655
 21
7.410293198741396
 31
0.0
  0
LINE
  5
60EA
330
18
100
AcDbEntity
  8
S2
100
AcDbLine
 10
2.426192402998655
 20
7.410293198741398
 30
0.0
 11
2.363192402998652
 21
7.37392013178245
 31
0.0
  0
LINE
  5
60EB
330
18
100
AcDbEntity
  8
S2
100
AcDbLine
 10
2.363192402998647
 20
7.519412399618237
 30
0.0
 11
2.426192402998651
 21
7.483039332659291
 31
0.0
  0
LINE
  5
60EC
330
18
100
AcDbEntity
  8
S2
100
AcDbLine
 10
1.525312824837211
 20
5.922670131782451
 30
0.0
 11
1.462312824837211
 21
5.959043198741396
 31
0.0
  0
CIRCLE
  5
60ED
330
18
100
AcDbEntity
  8
S2
100
AcDbCircle
 10
1.525312824837211
 20
5.995416265700342
 30
0.0
 40
0.10125
  0
LINE
  5
60EE
330
18
100
AcDbEntity
  8
S2
100
AcDbLine
 10
1.462312824837209
 20
6.031789332659292
 30
0.0
 11
1.525312824837211
 21
6.068162399618238
 31
0.0
  0
LINE
  5
60EF
330
18
100
AcDbEntity
  8
S2
100
AcDbLine
 10
1.462312824837209
 20
5.959043198741399
 30
0.0
 11
1.462312824837211
 21
6.031789332659295
 31
0.0
  0
LINE
  5
60F0
330
18
100
AcDbEntity
  8
S2
100
AcDbLine
 10
1.588312824837208
 20
6.031789332659287
 30
0.0
 11
1.588312824837211
 21
5.959043198741394
 31
0.0
  0
LINE
  5
60F1
330
18
100
AcDbEntity
  8
S2
100
AcDbLine
 10
1.588312824837211
 20
5.959043198741396
 30
0.0
 11
1.525312824837208
 21
5.922670131782449
 31
0.0
  0
LINE
  5
60F2
330
18
100
AcDbEntity
  8
S2
100
AcDbLine
 10
1.525312824837203
 20
6.068162399618235
 30
0.0
 11
1.588312824837208
 21
6.03178933265929
 31
0.0
  0
LINE
  5
60F3
330
18
100
AcDbEntity
  8
S2
100
AcDbLine
 10
3.201071981160096
 20
5.922670131782459
 30
0.0
 11
3.138071981160097
 21
5.959043198741404
 31
0.0
  0
CIRCLE
  5
60F4
330
18
100
AcDbEntity
  8
S2
100
AcDbCircle
 10
3.201071981160096
 20
5.99541626570035
 30
0.0
 40
0.10125
  0
LINE
  5
60F5
330
18
100
AcDbEntity
  8
S2
100
AcDbLine
 10
3.138071981160095
 20
6.0317893326593
 30
0.0
 11
3.201071981160096
 21
6.068162399618246
 31
0.0
  0
LINE
  5
60F6
330
18
100
AcDbEntity
  8
S2
100
AcDbLine
 10
3.138071981160095
 20
5.959043198741407
 30
0.0
 11
3.138071981160097
 21
6.031789332659303
 31
0.0
  0
LINE
  5
60F7
330
18
100
AcDbEntity
  8
S2
100
AcDbLine
 10
3.264071981160094
 20
6.031789332659295
 30
0.0
 11
3.264071981160096
 21
5.959043198741402
 31
0.0
  0
LINE
  5
60F8
330
18
100
AcDbEntity
  8
S2
100
AcDbLine
 10
3.264071981160096
 20
5.959043198741404
 30
0.0
 11
3.201071981160094
 21
5.922670131782457
 31
0.0
  0
LINE
  5
60F9
330
18
100
AcDbEntity
  8
S2
100
AcDbLine
 10
3.201071981160088
 20
6.068162399618243
 30
0.0
 11
3.264071981160093
 21
6.031789332659298
 31
0.0
  0
LINE
  5
6102
330
18
100
AcDbEntity
  8
D1
  6
CONTINUOUS
100
AcDbLine
 10
13.94220400766455
 20
6.479166265700349
 30
0.0
 11
15.52261347596237
 21
6.479166265700349
 31
0.0
  0
LINE
  5
6103
330
18
100
AcDbEntity
  8
D1
  6
CONTINUOUS
100
AcDbLine
 10
14.25647190691605
 20
5.45766626570032
 30
0.0
 11
15.52261347596237
 21
5.45766626570032
 31
0.0
  0
LINE
  5
6104
330
18
100
AcDbEntity
  8
D1
  6
CONTINUOUS
100
AcDbLine
 10
15.48261347596237
 20
6.29916626570035
 30
0.0
 11
15.48261347596237
 21
6.145279983292822
 31
0.0
  0
LINE
  5
6105
330
18
100
AcDbEntity
  8
D1
  6
CONTINUOUS
100
AcDbLine
 10
15.48261347596237
 20
5.637666265700319
 30
0.0
 11
15.48261347596237
 21
5.815279983292823
 31
0.0
  0
SOLID
  5
6106
330
18
100
AcDbEntity
  8
D1
  6
CONTINUOUS
100
AcDbTrace
 10
15.45261347596237
 20
6.29916626570035
 30
0.0
 11
15.51261347596237
 21
6.29916626570035
 31
0.0
 12
15.48261347596237
 22
6.479166265700349
 32
0.0
 13
15.48261347596237
 23
6.479166265700349
 33
0.0
  0
SOLID
  5
6107
330
18
100
AcDbEntity
  8
D1
  6
CONTINUOUS
100
AcDbTrace
 10
15.45261347596237
 20
5.637666265700319
 30
0.0
 11
15.51261347596237
 21
5.637666265700319
 31
0.0
 12
15.48261347596237
 22
5.45766626570032
 32
0.0
 13
15.48261347596237
 23
5.45766626570032
 33
0.0
  0
MTEXT
  5
6108
330
18
100
AcDbEntity
  8
D1
  6
CONTINUOUS
100
AcDbMText
 10
15.48261347596237
 20
5.966350095701301
 30
0.0
 40
0.09
 41
0.0
 71
     5
 72
     1
  1
0.68"\P(17.3mm)
  7
ARIALBLACK
1001
ACAD
1000
MTEXTBEGIN
1070
    73
1070
     1
1070
    44
1040
1.0
1070
    74
1070
     0
1000
MTEXTEND
  0
LINE
  5
6109
330
18
100
AcDbEntity
  8
D1
  6
CONTINUOUS
100
AcDbLine
 10
14.20320400766454
 20
6.479166265700341
 30
0.0
 11
16.32926061687907
 21
6.479166265700341
 31
0.0
  0
LINE
  5
610A
330
18
100
AcDbEntity
  8
D1
  6
CONTINUOUS
100
AcDbLine
 10
14.22720400766453
 20
5.172666265700319
 30
0.0
 11
16.32926061687907
 21
5.172666265700319
 31
0.0
  0
LINE
  5
610B
330
18
100
AcDbEntity
  8
D1
  6
CONTINUOUS
100
AcDbLine
 10
16.28926061687907
 20
6.299166265700342
 30
0.0
 11
16.28926061687907
 21
5.988108251977894
 31
0.0
  0
LINE
  5
610C
330
18
100
AcDbEntity
  8
D1
  6
CONTINUOUS
100
AcDbLine
 10
16.28926061687907
 20
5.352666265700319
 30
0.0
 11
16.28926061687907
 21
5.658108251977894
 31
0.0
  0
SOLID
  5
610D
330
18
100
AcDbEntity
  8
D1
  6
CONTINUOUS
100
AcDbTrace
 10
16.25926061687907
 20
6.299166265700342
 30
0.0
 11
16.31926061687908
 21
6.299166265700342
 31
0.0
 12
16.28926061687907
 22
6.479166265700341
 32
0.0
 13
16.28926061687907
 23
6.479166265700341
 33
0.0
  0
SOLID
  5
610E
330
18
100
AcDbEntity
  8
D1
  6
CONTINUOUS
100
AcDbTrace
 10
16.25926061687907
 20
5.352666265700319
 30
0.0
 11
16.31926061687908
 21
5.352666265700319
 31
0.0
 12
16.28926061687907
 22
5.172666265700319
 32
0.0
 13
16.28926061687907
 23
5.172666265700319
 33
0.0
  0
MTEXT
  5
610F
330
18
100
AcDbEntity
  8
D1
  6
CONTINUOUS
100
AcDbMText
 10
16.28926061687907
 20
5.808978849992403
 30
0.0
 40
0.09
 41
0.0
 71
     5
 72
     1
  1
0.87"\P(22.1mm)
  7
ARIALBLACK
1001
ACAD
1000
MTEXTBEGIN
1070
    73
1070
     1
1070
    44
1040
1.0
1070
    74
1070
     0
1000
MTEXTEND
  0
SOLID
  5
6110
330
18
100
AcDbEntity
  8
D1
  6
CONTINUOUS
100
AcDbTrace
 10
14.25516568229558
 20
6.703718295767981
 30
0.0
 11
14.22197150880827
 21
6.75369976079747
 31
0.0
 12
14.08862420046346
 22
6.62912650782078
 32
0.0
 13
14.08862420046346
 23
6.62912650782078
 33
0.0
  0
LINE
  5
6111
330
18
100
AcDbEntity
  8
D1
  6
CONTINUOUS
100
AcDbLine
 10
14.23856859555192
 20
6.728709028282725
 30
0.0
 11
15.13099024778495
 21
7.321392718738412
 31
0.0
  0
LINE
  5
6112
330
18
100
AcDbEntity
  8
D1
  6
CONTINUOUS
100
AcDbLine
 10
15.13099024778495
 20
7.321392718738412
 30
0.0
 11
15.32371624516019
 21
7.321392718738412
 31
0.0
  0
MTEXT
  5
6113
330
18
100
AcDbEntity
  8
D1
  6
CONTINUOUS
100
AcDbMText
 10
15.4137162451602
 20
7.371392718738412
 30
0.0
 40
0.09
 41
0.0
 71
     1
 72
     1
  1
Si PHOTODIODE\P(%%C1.0mm ACTIVE AREA)
  7
ARIALBLACK
1001
ACAD
1000
MTEXTBEGIN
1070
    73
1070
     1
1070
    44
1040
1.0
1070
    74
1070
     0
1000
MTEXTEND
  0
LINE
  5
6114
330
18
100
AcDbEntity
  8
D1
  6
CONTINUOUS
100
AcDbLine
 10
14.66228575504065
 20
7.469949945322527
 30
0.0
 11
15.08778382676971
 21
8.024596266767806
 31
0.0
  0
LINE
  5
6115
330
18
100
AcDbEntity
  8
D1
  6
CONTINUOUS
100
AcDbLine
 10
15.08778382676971
 20
8.024596266767806
 30
0.0
 11
15.26778382676971
 21
8.024596266767806
 31
0.0
  0
SOLID
  5
6116
330
18
100
AcDbEntity
  8
D1
  6
CONTINUOUS
100
AcDbTrace
 10
14.63848314411879
 20
7.488210167481713
 30
0.0
 11
14.6860883659625
 21
7.451689723163341
 31
0.0
 12
14.55272442208554
 22
7.327134279791401
 32
0.0
 13
14.55272442208554
 23
7.327134279791401
 33
0.0
  0
MTEXT
  5
6117
330
18
100
AcDbEntity
  8
D1
  6
CONTINUOUS
100
AcDbMText
 10
15.59111716010304
 20
7.957505119667846
 30
0.0
 40
0.09
 41
0.0
 71
     5
 72
     1
  1
\U+22051.425\P(%%c36.2mm)
  7
ARIALBLACK
1001
ACAD
1000
MTEXTBEGIN
1070
    73
1070
     1
1070
    44
1040
1.0
1070
    74
1070
     0
1000
MTEXTEND
  0
LINE
  5
6118
330
18
100
AcDbEntity
  8
D1
  6
CONTINUOUS
100
AcDbLine
 10
13.81220400766454
 20
6.47916626570034
 30
0.0
 11
13.99220400766454
 21
6.47916626570034
 31
0.0
  0
LINE
  5
6119
330
18
100
AcDbEntity
  8
D1
  6
CONTINUOUS
100
AcDbLine
 10
13.90220400766454
 20
6.389166265700339
 30
0.0
 11
13.90220400766454
 21
6.56916626570034
 31
0.0
  0
LINE
  5
6129
330
18
100
AcDbEntity
  8
D1
  6
CONTINUOUS
100
AcDbLine
 10
8.512783003292032
 20
7.26118550358681
 30
0.0
 11
8.512783003292032
 21
7.854961196427237
 31
0.0
  0
LINE
  5
6131
330
18
100
AcDbEntity
  8
D1
  6
CONTINUOUS
100
AcDbLine
 10
8.512783003292032
 20
7.26118550358681
 30
0.0
 11
8.512783003292032
 21
8.551472916420191
 31
0.0
  0
LINE
  5
6132
330
18
100
AcDbEntity
  8
D1
  6
CONTINUOUS
100
AcDbLine
 10
7.327783003292031
 20
7.587916265700345
 30
0.0
 11
7.327783003292031
 21
8.551472916420191
 31
0.0
  0
LINE
  5
6133
330
18
100
AcDbEntity
  8
D1
  6
CONTINUOUS
100
AcDbLine
 10
8.332783003292032
 20
8.511472916420192
 30
0.0
 11
8.197556982584966
 21
8.511472916420192
 31
0.0
  0
LINE
  5
6134
330
18
100
AcDbEntity
  8
D1
  6
CONTINUOUS
100
AcDbLine
 10
7.507783003292031
 20
8.511472916420192
 30
0.0
 11
7.667556982584965
 21
8.511472916420192
 31
0.0
  0
SOLID
  5
6135
330
18
100
AcDbEntity
  8
D1
  6
CONTINUOUS
100
AcDbTrace
 10
8.332783003292032
 20
8.541472916420191
 30
0.0
 11
8.332783003292032
 21
8.481472916420193
 31
0.0
 12
8.512783003292032
 22
8.511472916420192
 32
0.0
 13
8.512783003292032
 23
8.511472916420192
 33
0.0
  0
SOLID
  5
6136
330
18
100
AcDbEntity
  8
D1
  6
CONTINUOUS
100
AcDbTrace
 10
7.507783003292031
 20
8.541472916420191
 30
0.0
 11
7.507783003292031
 21
8.481472916420193
 31
0.0
 12
7.327783003292031
 22
8.511472916420192
 32
0.0
 13
7.327783003292031
 23
8.511472916420192
 33
0.0
  0
MTEXT
  5
6137
330
18
100
AcDbEntity
  8
D1
  6
CONTINUOUS
100
AcDbMText
 10
7.932556982584966
 20
8.428820689444588
 30
0.0
 40
0.09
 41
0.0
 71
     5
 72
     1
  1
0.79"\P(20.1mm)
  7
ARIALBLACK
1001
ACAD
1000
MTEXTBEGIN
1070
    73
1070
     1
1070
    44
1040
1.0
1070
    74
1070
     0
1000
MTEXTEND
  0
LINE
  5
6138
330
18
100
AcDbEntity
  8
D1
  6
CONTINUOUS
100
AcDbLine
 10
8.512783003292032
 20
7.26118550358681
 30
0.0
 11
8.512783003292032
 21
9.218301971642148
 31
0.0
  0
LINE
  5
6139
330
18
100
AcDbEntity
  8
D1
  6
CONTINUOUS
100
AcDbLine
 10
6.015283003292031
 20
7.389166265700344
 30
0.0
 11
6.015283003292031
 21
9.218301971642148
 31
0.0
  0
LINE
  5
613A
330
18
100
AcDbEntity
  8
D1
  6
CONTINUOUS
100
AcDbLine
 10
8.332783003292032
 20
9.178301971642149
 30
0.0
 11
7.620187936683736
 21
9.178301971642149
 31
0.0
  0
LINE
  5
613B
330
18
100
AcDbEntity
  8
D1
  6
CONTINUOUS
100
AcDbLine
 10
6.195283003292031
 20
9.178301971642149
 30
0.0
 11
6.906854603350401
 21
9.178301971642149
 31
0.0
  0
SOLID
  5
613C
330
18
100
AcDbEntity
  8
D1
  6
CONTINUOUS
100
AcDbTrace
 10
8.332783003292032
 20
9.208301971642148
 30
0.0
 11
8.332783003292032
 21
9.148301971642149
 31
0.0
 12
8.512783003292032
 22
9.178301971642149
 32
0.0
 13
8.512783003292032
 23
9.178301971642149
 33
0.0
  0
SOLID
  5
613D
330
18
100
AcDbEntity
  8
D1
  6
CONTINUOUS
100
AcDbTrace
 10
6.195283003292031
 20
9.208301971642148
 30
0.0
 11
6.195283003292031
 21
9.148301971642149
 31
0.0
 12
6.015283003292031
 22
9.178301971642149
 32
0.0
 13
6.015283003292031
 23
9.178301971642149
 33
0.0
  0
MTEXT
  5
613E
330
18
100
AcDbEntity
  8
D1
  6
CONTINUOUS
100
AcDbMText
 10
7.263521270017069
 20
9.178301971642149
 30
0.0
 40
0.09
 41
0.0
 71
     5
 72
     1
  1
1.67"\P(42.4mm)
  7
ARIALBLACK
1001
ACAD
1000
MTEXTBEGIN
1070
    73
1070
     1
1070
    44
1040
1.0
1070
    74
1070
     0
1000
MTEXTEND
  0
SOLID
  5
613F
330
18
100
AcDbEntity
  8
D1
  6
CONTINUOUS
100
AcDbTrace
 10
11.45184200675527
 20
7.344100848591921
 30
0.0
 11
11.4096436953627
 21
7.386754131180904
 31
0.0
 12
11.30278300329203
 22
7.238832555708702
 32
0.0
 13
11.30278300329203
 23
7.238832555708702
 33
0.0
  0
LINE
  5
6140
330
18
100
AcDbEntity
  8
D1
  6
CONTINUOUS
100
AcDbLine
 10
11.43074285105898
 20
7.365427489886412
 30
0.0
 11
12.07942045520845
 21
8.007185822933337
 31
0.0
  0
LINE
  5
6141
330
18
100
AcDbEntity
  8
D1
  6
CONTINUOUS
100
AcDbLine
 10
12.07942045520845
 20
8.007185822933337
 30
0.0
 11
12.31674265402376
 21
8.007185822933337
 31
0.0
  0
MTEXT
  5
6142
330
18
100
AcDbEntity
  8
D1
  6
CONTINUOUS
100
AcDbMText
 10
12.40674265402375
 20
8.057185822933337
 30
0.0
 40
0.09
 41
0.0
 71
     1
 72
     1
  1
\A1;RETAINING RING
  7
ARIALBLACK
1001
ACAD
1000
MTEXTBEGIN
1070
    73
1070
     1
1070
    44
1040
1.0
1070
    74
1070
     0
1000
MTEXTEND
  0
SOLID
  5
6143
330
18
100
AcDbEntity
  8
D1
  6
CONTINUOUS
100
AcDbTrace
 10
9.996068074782641
 20
7.478021978161054
 30
0.0
 11
9.953558920931026
 21
7.520365476349321
 31
0.0
 12
9.847783003292033
 22
7.371666265700343
 32
0.0
 13
9.847783003292033
 23
7.371666265700343
 33
0.0
  0
LINE
  5
6144
330
18
100
AcDbEntity
  8
D1
  6
CONTINUOUS
100
AcDbLine
 10
9.974813497856832
 20
7.499193727255188
 30
0.0
 11
10.90356467435804
 21
8.431578351601089
 31
0.0
  0
LINE
  5
6145
330
18
100
AcDbEntity
  8
D1
  6
CONTINUOUS
100
AcDbLine
 10
10.90356467435804
 20
8.431578351601089
 30
0.0
 11
11.15337750093781
 21
8.431578351601089
 31
0.0
  0
MTEXT
  5
6146
330
18
100
AcDbEntity
  8
D1
  6
CONTINUOUS
100
AcDbMText
 10
11.24337750093781
 20
8.48157835160109
 30
0.0
 40
0.09
 41
0.0
 71
     1
 72
     1
  1
\A1;OPTIC MOUNT
  7
ARIALBLACK
1001
ACAD
1000
MTEXTBEGIN
1070
    73
1070
     1
1070
    44
1040
1.0
1070
    74
1070
     0
1000
MTEXTEND
  0
SOLID
  5
6147
330
18
100
AcDbEntity
  8
D1
  6
CONTINUOUS
100
AcDbTrace
 10
5.907722018899493
 20
7.106579408386158
 30
0.0
 11
5.865726458265852
 21
7.063726486816372
 31
0.0
 12
6.015283003292031
 22
6.959166265700345
 32
0.0
 13
6.015283003292031
 23
6.959166265700345
 33
0.0
  0
LINE
  5
6148
330
18
100
AcDbEntity
  8
D1
  6
CONTINUOUS
100
AcDbLine
 10
5.886724238582672
 20
7.085152947601265
 30
0.0
 11
5.238475872232246
 21
7.720431770549048
 31
0.0
  0
LINE
  5
6149
330
18
100
AcDbEntity
  8
D1
  6
CONTINUOUS
100
AcDbLine
 10
5.238475872232246
 20
7.720431770549048
 30
0.0
 11
4.949276347843227
 21
7.720431770549048
 31
0.0
  0
MTEXT
  5
614A
330
18
100
AcDbEntity
  8
D1
  6
CONTINUOUS
100
AcDbMText
 10
4.859276347843227
 20
7.770431770549047
 30
0.0
 40
0.09
 41
0.0
 71
     3
 72
     1
  1
\A1;BATTERY TUBE
  7
ARIALBLACK
1001
ACAD
1000
MTEXTBEGIN
1070
    73
1070
     1
1070
    44
1040
1.0
1070
    74
1070
     0
1000
MTEXTEND
  0
SOLID
  5
614B
330
18
100
AcDbEntity
  8
D1
  6
CONTINUOUS
100
AcDbTrace
 10
6.797211849922114
 20
5.640887932232976
 30
0.0
 11
6.839805966363959
 21
5.598629900516645
 31
0.0
 12
6.945283003292034
 22
5.747541265700345
 32
0.0
 13
6.945283003292034
 23
5.747541265700345
 33
0.0
  0
LINE
  5
614C
330
18
100
AcDbEntity
  8
D1
  6
CONTINUOUS
100
AcDbLine
 10
6.818508908143037
 20
5.61975891637481
 30
0.0
 11
6.221754264197922
 21
5.018258189553549
 31
0.0
  0
LINE
  5
614D
330
18
100
AcDbEntity
  8
D1
  6
CONTINUOUS
100
AcDbLine
 10
6.221754264197922
 20
5.018258189553549
 30
0.0
 11
5.903634796413026
 21
5.018258189553549
 31
0.0
  0
MTEXT
  5
614E
330
18
100
AcDbEntity
  8
D1
  6
CONTINUOUS
100
AcDbMText
 10
5.813634796413026
 20
5.068258189553549
 30
0.0
 40
0.09
 41
0.0
 71
     3
 72
     1
  1
\A1;BNC OUTPUT
  7
ARIALBLACK
1001
ACAD
1000
MTEXTBEGIN
1070
    73
1070
     1
1070
    44
1040
1.0
1070
    74
1070
     0
1000
MTEXTEND
  0
SOLID
  5
614F
330
18
100
AcDbEntity
  8
D1
  6
CONTINUOUS
100
AcDbTrace
 10
6.374758993032409
 20
6.388059411598264
 30
0.0
 11
6.374758993032409
 21
6.328059411598263
 31
0.0
 12
6.554758993032408
 22
6.358059411598263
 32
0.0
 13
6.554758993032408
 23
6.358059411598263
 33
0.0
  0
LINE
  5
6150
330
18
100
AcDbEntity
  8
D1
  6
CONTINUOUS
100
AcDbLine
 10
6.374758993032409
 20
6.358059411598263
 30
0.0
 11
5.657815187117829
 21
6.358059411598263
 31
0.0
  0
MTEXT
  5
6151
330
18
100
AcDbEntity
  8
D1
  6
CONTINUOUS
100
AcDbMText
 10
5.56781518711783
 20
6.408059411598263
 30
0.0
 40
0.09
 41
0.0
 71
     3
 72
     1
  1
\A1;ON/OFF SWITCH
  7
ARIALBLACK
1001
ACAD
1000
MTEXTBEGIN
1070
    73
1070
     1
1070
    44
1040
1.0
1070
    74
1070
     0
1000
MTEXTEND
  0
LINE
  5
6152
330
18
100
AcDbEntity
  8
D1
  6
CONTINUOUS
100
AcDbLine
 10
8.512783003292032
 20
5.697147027813878
 30
0.0
 11
8.512783003292032
 21
4.247921726798426
 31
0.0
  0
LINE
  5
6153
330
18
100
AcDbEntity
  8
D1
  6
CENTER
100
AcDbLine
 10
7.867783003292032
 20
5.61371836636259
 30
0.0
 11
7.867783003292032
 21
4.247921726798426
 31
0.0
  0
LINE
  5
6154
330
18
100
AcDbEntity
  8
D1
  6
CONTINUOUS
100
AcDbLine
 10
8.692783003292031
 20
4.287921726798426
 30
0.0
 11
8.872783003292031
 21
4.287921726798426
 31
0.0
  0
LINE
  5
6155
330
18
100
AcDbEntity
  8
D1
  6
CONTINUOUS
100
AcDbLine
 10
7.687783003292032
 20
4.287921726798426
 30
0.0
 11
7.507783003292033
 21
4.287921726798426
 31
0.0
  0
SOLID
  5
6156
330
18
100
AcDbEntity
  8
D1
  6
CONTINUOUS
100
AcDbTrace
 10
8.692783003292031
 20
4.317921726798426
 30
0.0
 11
8.692783003292031
 21
4.257921726798426
 31
0.0
 12
8.512783003292032
 22
4.287921726798426
 32
0.0
 13
8.512783003292032
 23
4.287921726798426
 33
0.0
  0
SOLID
  5
6157
330
18
100
AcDbEntity
  8
D1
  6
CONTINUOUS
100
AcDbTrace
 10
7.687783003292032
 20
4.317921726798426
 30
0.0
 11
7.687783003292032
 21
4.257921726798426
 31
0.0
 12
7.867783003292032
 22
4.287921726798426
 32
0.0
 13
7.867783003292032
 23
4.287921726798426
 33
0.0
  0
MTEXT
  5
6158
330
18
100
AcDbEntity
  8
D1
  6
CONTINUOUS
100
AcDbMText
 10
8.168928055710932
 20
4.206484314700862
 30
0.0
 40
0.09
 41
0.0
 71
     5
 72
     1
  1
0.43"\P(10.9mm)
  7
ARIALBLACK
1001
ACAD
1000
MTEXTBEGIN
1070
    73
1070
     1
1070
    44
1040
1.0
1070
    74
1070
     0
1000
MTEXTEND
  0
LINE
  5
615D
330
18
100
AcDbEntity
  8
D1
  6
CONTINUOUS
100
AcDbLine
 10
9.637783003292032
 20
5.546666265700345
 30
0.0
 11
9.637783003292032
 21
4.846661651297782
 31
0.0
  0
LINE
  5
615E
330
18
100
AcDbEntity
  8
D1
  6
CONTINUOUS
100
AcDbLine
 10
10.05778300329203
 20
5.546666265700345
 30
0.0
 11
10.05778300329203
 21
4.846661651297782
 31
0.0
  0
LINE
  5
615F
330
18
100
AcDbEntity
  8
D1
  6
CONTINUOUS
100
AcDbLine
 10
10.23778300329203
 20
4.886661651297782
 30
0.0
 11
10.41778300329203
 21
4.886661651297782
 31
0.0
  0
LINE
  5
6160
330
18
100
AcDbEntity
  8
D1
  6
CONTINUOUS
100
AcDbLine
 10
9.457783003292032
 20
4.886661651297782
 30
0.0
 11
9.277783003292032
 21
4.886661651297782
 31
0.0
  0
SOLID
  5
6161
330
18
100
AcDbEntity
  8
D1
  6
CONTINUOUS
100
AcDbTrace
 10
10.23778300329203
 20
4.916661651297782
 30
0.0
 11
10.23778300329203
 21
4.856661651297781
 31
0.0
 12
10.05778300329203
 22
4.886661651297782
 32
0.0
 13
10.05778300329203
 23
4.886661651297782
 33
0.0
  0
SOLID
  5
6162
330
18
100
AcDbEntity
  8
D1
  6
CONTINUOUS
100
AcDbTrace
 10
9.457783003292032
 20
4.916661651297782
 30
0.0
 11
9.457783003292032
 21
4.856661651297781
 31
0.0
 12
9.637783003292032
 22
4.886661651297782
 32
0.0
 13
9.637783003292032
 23
4.886661651297782
 33
0.0
  0
MTEXT
  5
6163
330
18
100
AcDbEntity
  8
D1
  6
CONTINUOUS
100
AcDbMText
 10
9.012783003292032
 20
4.807715507103317
 30
0.0
 40
0.09
 41
0.0
 71
     5
 72
     1
  1
0.28"\P(7.1mm)
  7
ARIALBLACK
1001
ACAD
1000
MTEXTBEGIN
1070
    73
1070
     1
1070
    44
1040
1.0
1070
    74
1070
     0
1000
MTEXTEND
  0
LINE
  5
6164
330
18
100
AcDbEntity
  8
D1
  6
CENTER
100
AcDbLine
 10
10.20778300329203
 20
6.479166265700344
 30
0.0
 11
11.03278300329203
 21
6.479166265700344
 31
0.0
  0
LINE
  5
6165
330
18
100
AcDbEntity
  8
D1
  6
CONTINUOUS
100
AcDbLine
 10
11.18278300329203
 20
5.662916265700345
 30
0.0
 11
11.18278300329203
 21
4.248170584642237
 31
0.0
  0
LINE
  5
6166
330
18
100
AcDbEntity
  8
D1
  6
CONTINUOUS
100
AcDbLine
 10
11.30278300329203
 20
5.662916265700345
 30
0.0
 11
11.30278300329203
 21
4.248170584642237
 31
0.0
  0
LINE
  5
6167
330
18
100
AcDbEntity
  8
D1
  6
CONTINUOUS
100
AcDbLine
 10
11.00278300329203
 20
4.288170584642237
 30
0.0
 11
10.82278300329203
 21
4.288170584642237
 31
0.0
  0
LINE
  5
6168
330
18
100
AcDbEntity
  8
D1
  6
CONTINUOUS
100
AcDbLine
 10
11.48278300329203
 20
4.288170584642237
 30
0.0
 11
11.66278300329203
 21
4.288170584642237
 31
0.0
  0
SOLID
  5
6169
330
18
100
AcDbEntity
  8
D1
  6
CONTINUOUS
100
AcDbTrace
 10
11.00278300329203
 20
4.318170584642238
 30
0.0
 11
11.00278300329203
 21
4.258170584642237
 31
0.0
 12
11.18278300329203
 22
4.288170584642237
 32
0.0
 13
11.18278300329203
 23
4.288170584642237
 33
0.0
  0
SOLID
  5
616A
330
18
100
AcDbEntity
  8
D1
  6
CONTINUOUS
100
AcDbTrace
 10
11.48278300329203
 20
4.318170584642238
 30
0.0
 11
11.48278300329203
 21
4.258170584642237
 31
0.0
 12
11.30278300329203
 22
4.288170584642237
 32
0.0
 13
11.30278300329203
 23
4.288170584642237
 33
0.0
  0
MTEXT
  5
616B
330
18
100
AcDbEntity
  8
D1
  6
CONTINUOUS
100
AcDbMText
 10
11.9194496699587
 20
4.19897859417723
 30
0.0
 40
0.09
 41
0.0
 71
     5
 72
     1
  1
0.08"\P(2.0mm)
  7
ARIALBLACK
1001
ACAD
1000
MTEXTBEGIN
1070
    73
1070
     1
1070
    44
1040
1.0
1070
    74
1070
     0
1000
MTEXTEND
  0
SOLID
  5
616C
330
18
100
AcDbEntity
  8
D1
  6
CONTINUOUS
100
AcDbTrace
 10
8.648343587000287
 20
7.343346578175557
 30
0.0
 11
8.601396179906192
 21
7.380708871562626
 31
0.0
 12
8.512783003292032
 22
7.22118550358681
 32
0.0
 13
8.512783003292032
 23
7.22118550358681
 33
0.0
  0
LINE
  5
616D
330
18
100
AcDbEntity
  8
D1
  6
CONTINUOUS
100
AcDbLine
 10
8.624869883453239
 20
7.362027724869092
 30
0.0
 11
9.879115360454228
 21
8.938043747083369
 31
0.0
  0
LINE
  5
616E
330
18
100
AcDbEntity
  8
D1
  6
CONTINUOUS
100
AcDbLine
 10
9.879115360454228
 20
8.938043747083369
 30
0.0
 11
10.12044804872453
 21
8.938043747083369
 31
0.0
  0
MTEXT
  5
616F
330
18
100
AcDbEntity
  8
D1
  6
CONTINUOUS
100
AcDbMText
 10
10.21044804872453
 20
8.859996272143146
 30
0.0
 40
0.09
 41
0.0
 71
     4
 72
     1
  1
SM1-SERIES THREAD\P%%C1.035-40 CLASS 2
  7
ARIALBLACK
1001
ACAD
1000
MTEXTBEGIN
1070
    73
1070
     1
1070
    44
1040
1.0
1070
    74
1070
     0
1000
MTEXTEND
  0
SOLID
  5
6170
330
18
100
AcDbEntity
  8
D1
  6
CONTINUOUS
100
AcDbTrace
 10
13.93268645322737
 20
4.992747338089832
 30
0.0
 11
13.98939083809765
 21
5.012358884089158
 31
0.0
 12
13.90220400766453
 22
5.172666265700321
 32
0.0
 13
13.90220400766453
 23
5.172666265700321
 33
0.0
  0
LINE
  5
6171
330
18
100
AcDbEntity
  8
D1
  6
CONTINUOUS
100
AcDbLine
 10
13.96103864566251
 20
5.002553111089495
 30
0.0
 11
14.20631976639829
 21
4.293352772060003
 31
0.0
  0
LINE
  5
6172
330
18
100
AcDbEntity
  8
D1
  6
CONTINUOUS
100
AcDbLine
 10
14.20631976639829
 20
4.293352772060003
 30
0.0
 11
14.43692684377448
 21
4.293352772060003
 31
0.0
  0
MTEXT
  5
6173
330
18
100
AcDbEntity
  8
D1
  6
CONTINUOUS
100
AcDbMText
 10
14.52692684377447
 20
4.343352772060003
 30
0.0
 40
0.09
 41
0.0
 71
     1
 72
     1
  1
MOUNTING HOLE\P#8-32 x 1/4" DEPTH\P(M4 x 6.4mm DEPTH\PFOR DET210/M VERSION)
  7
ARIALBLACK
1001
ACAD
1000
MTEXTBEGIN
1070
    73
1070
     1
1070
    44
1040
1.0
1070
    74
1070
     0
1000
MTEXTEND
  0
LINE
  5
617D
330
18
100
AcDbEntity
  8
D1
100
AcDbLine
 10
10.96779371909691
 20
0.7662835543201992
 30
0.0
 11
6.48637762697804
 21
0.7662835543201992
 31
0.0
  0
LINE
  5
617E
330
18
100
AcDbEntity
  8
D1
100
AcDbLine
 10
6.557652634407366
 20
0.8107885797983911
 30
0.0
 11
10.89651871166759
 21
0.8107885797983911
 31
0.0
  0
TEXT
  5
617F
330
18
100
AcDbEntity
  8
D1
100
AcDbText
 10
6.840216009078659
 20
0.8459501525592321
 30
0.0
 40
0.1125
  1
INFORMATION ONLY, NOT FOR MANUFACTURING
  7
ARIALBLACK
100
AcDbText
  0
INSERT
  5
618C
330
18
100
AcDbEntity
  8
D1
  6
CONTINUOUS
100
AcDbBlockReference
  2
COPYWRITE
 10
0.2033186418844295
 20
4.858669452214055
 30
0.0
 41
0.75
 42
0.75
  0
TEXT
  5
618E
330
18
100
AcDbEntity
  8
D1
100
AcDbText
 10
16.25357275234287
 20
1.382872846864173
 30
-0.1677024
 40
0.08
  1
EC
  7
ARIALBLACK
100
AcDbText
  0
TEXT
  5
6191
330
18
100
AcDbEntity
  8
D1
100
AcDbText
 10
15.5835603677594
 20
0.5431888808400345
 30
-0.1677024
 40
0.08
  1
DET210
  7
ARIALBLACK
100
AcDbText
  0
LINE
  5
61A2
330
18
100
AcDbEntity
  8
BODY
  6
CONTINUOUS
100
AcDbLine
 10
4.457446447408472
 20
2.146941000878722
 30
0.0
 11
4.499946447408472
 21
2.146941000878722
 31
0.0
  0
LINE
  5
61A3
330
18
100
AcDbEntity
  8
BODY
  6
CONTINUOUS
100
AcDbLine
 10
4.499946447408472
 20
2.146941000878722
 30
0.0
 11
4.499946447408472
 21
2.154441000878722
 31
0.0
  0
LINE
  5
61A4
330
18
100
AcDbEntity
  8
BODY
  6
CONTINUOUS
100
AcDbLine
 10
4.499946447408472
 20
2.506941000878722
 30
0.0
 11
4.457446447408472
 21
2.506941000878722
 31
0.0
  0
LINE
  5
61A5
330
18
100
AcDbEntity
  8
BODY
  6
CONTINUOUS
100
AcDbLine
 10
4.457446447408472
 20
2.506941000878722
 30
0.0
 11
4.457446447408472
 21
2.146941000878722
 31
0.0
  0
LINE
  5
61A6
330
18
100
AcDbEntity
  8
BODY
  6
CONTINUOUS
100
AcDbLine
 10
4.640446447408471
 20
2.479441000878722
 30
0.0
 11
4.640446447408471
 21
2.174441000878722
 31
0.0
  0
LINE
  5
61A8
330
18
100
AcDbEntity
  8
BODY
  6
CONTINUOUS
100
AcDbLine
 10
4.509946447408473
 20
2.489441000878722
 30
0.0
 11
4.630446447408472
 21
2.489441000878722
 31
0.0
  0
LINE
  5
61A9
330
18
100
AcDbEntity
  8
BODY
  6
CONTINUOUS
100
AcDbLine
 10
4.509946447408472
 20
2.164441000878722
 30
0.0
 11
4.630446447408471
 21
2.164441000878722
 31
0.0
  0
ARC
  5
61AA
330
18
100
AcDbEntity
  8
BODY
  6
CONTINUOUS
100
AcDbCircle
 10
4.630446447408472
 20
2.479441000878722
 30
0.0
 40
0.01
100
AcDbArc
 50
359.9999999999998
 51
90.0
  0
ARC
  5
61AB
330
18
100
AcDbEntity
  8
BODY
  6
CONTINUOUS
100
AcDbCircle
 10
4.630446447408471
 20
2.174441000878722
 30
0.0
 40
0.01
100
AcDbArc
 50
270.0
 51
359.9999999999998
  0
ARC
  5
61AC
330
18
100
AcDbEntity
  8
BODY
  6
CONTINUOUS
100
AcDbCircle
 10
4.509946447408472
 20
2.154441000878722
 30
0.0
 40
0.01
100
AcDbArc
 50
90.00000000000019
 51
180.0
  0
LINE
  5
61AE
330
18
100
AcDbEntity
  8
BODY
  6
CONTINUOUS
100
AcDbLine
 10
4.499946447408473
 20
2.499441000878722
 30
0.0
 11
4.499946447408472
 21
2.506941000878722
 31
0.0
  0
ARC
  5
61AF
330
18
100
AcDbEntity
  8
BODY
  6
CONTINUOUS
100
AcDbCircle
 10
4.509946447408473
 20
2.499441000878722
 30
0.0
 40
0.01
100
AcDbArc
 50
180.0
 51
270.0
  0
LINE
  5
61B0
330
18
100
AcDbEntity
  8
BODY
  6
CONTINUOUS
100
AcDbLine
 10
4.499946447408472
 20
2.506941000878722
 30
0.0
 11
4.499946447408472
 21
2.146941000878722
 31
0.0
  0
LINE
  5
61B1
330
18
100
AcDbEntity
  8
BODY
  6
CONTINUOUS
100
AcDbLine
 10
4.577446447408472
 20
2.356941000878722
 30
0.0
 11
4.577446447408472
 21
2.296941000878722
 31
0.0
  0
LINE
  5
61B3
330
18
100
AcDbEntity
  8
BODY
  6
CONTINUOUS
100
AcDbLine
 10
4.577446447408472
 20
2.356941000878722
 30
0.0
 11
4.499946447408472
 21
2.356941000878722
 31
0.0
  0
LINE
  5
61B4
330
18
100
AcDbEntity
  8
BODY
  6
CONTINUOUS
100
AcDbLine
 10
4.577446447408472
 20
2.296941000878722
 30
0.0
 11
4.499946447408472
 21
2.296941000878722
 31
0.0
  0
LINE
  5
61B5
330
18
100
AcDbEntity
  8
BODY
  6
CONTINUOUS
100
AcDbLine
 10
4.557446447408472
 20
2.356941000878722
 30
0.0
 11
4.557446447408472
 21
2.296941000878722
 31
0.0
  0
LINE
  5
61B7
330
18
100
AcDbEntity
  8
BODY
  6
CONTINUOUS
100
AcDbLine
 10
4.640446447408471
 20
2.206941000878722
 30
0.0
 11
4.615446447408471
 21
2.206941000878722
 31
0.0
  0
LINE
  5
61B8
330
18
100
AcDbEntity
  8
BODY
  6
CONTINUOUS
100
AcDbLine
 10
4.640446447408471
 20
2.446941000878722
 30
0.0
 11
4.615446447408471
 21
2.446941000878722
 31
0.0
  0
LINE
  5
61BA
330
18
100
AcDbEntity
  8
BODY
  6
CONTINUOUS
100
AcDbLine
 10
4.615446447408471
 20
2.446941000878722
 30
0.0
 11
4.615446447408471
 21
2.206941000878722
 31
0.0
  0
LINE
  5
61E4
330
18
100
AcDbEntity
  8
S2
  6
HIDDEN
100
AcDbLine
 10
8.319658003292039
 20
6.722916265700342
 30
0.0
 11
8.500408003292037
 21
6.722916265700342
 31
0.0
  0
LINE
  5
61E5
330
18
100
AcDbEntity
  8
S2
  6
HIDDEN
100
AcDbLine
 10
8.319658003292037
 20
6.235416265700341
 30
0.0
 11
8.500408003292037
 21
6.235416265700342
 31
0.0
  0
LINE
  5
61E6
330
18
100
AcDbEntity
  8
S2
  6
HIDDEN
100
AcDbLine
 10
8.420908003292037
 20
6.524166265700341
 30
0.0
 11
8.304658003292038
 21
6.524166265700341
 31
0.0
  0
LINE
  5
61E7
330
18
100
AcDbEntity
  8
S2
  6
HIDDEN
100
AcDbLine
 10
8.420908003292037
 20
6.434166265700342
 30
0.0
 11
8.304658003292038
 21
6.434166265700342
 31
0.0
  0
LINE
  5
61E8
330
18
100
AcDbEntity
  8
S2
  6
HIDDEN
100
AcDbLine
 10
8.240908003292037
 20
6.749166265700341
 30
0.0
 11
8.240908003292037
 21
6.209166265700342
 31
0.0
  0
LINE
  5
61E9
330
18
100
AcDbEntity
  8
S2
  6
HIDDEN
100
AcDbLine
 10
8.304658003292038
 20
6.749166265700341
 30
0.0
 11
8.304658003292038
 21
6.209166265700342
 31
0.0
  0
LINE
  5
61EA
330
18
100
AcDbEntity
  8
S2
  6
HIDDEN
100
AcDbLine
 10
8.240908003292037
 20
6.209166265700342
 30
0.0
 11
8.304658003292038
 21
6.209166265700342
 31
0.0
  0
LINE
  5
61EB
330
18
100
AcDbEntity
  8
S2
  6
HIDDEN
100
AcDbLine
 10
8.304658003292038
 20
6.209166265700342
 30
0.0
 11
8.304658003292038
 21
6.220416265700341
 31
0.0
  0
ARC
  5
61EC
330
18
100
AcDbEntity
  8
S2
  6
HIDDEN
100
AcDbCircle
 10
8.319658003292037
 20
6.220416265700341
 30
0.0
 40
0.015
100
AcDbArc
 50
90.00000000000019
 51
180.0
  0
LINE
  5
61ED
330
18
100
AcDbEntity
  8
S2
  6
HIDDEN
100
AcDbLine
 10
8.390908003292038
 20
6.524166265700341
 30
0.0
 11
8.390908003292038
 21
6.434166265700342
 31
0.0
  0
LINE
  5
61EE
330
18
100
AcDbEntity
  8
S2
  6
HIDDEN
100
AcDbLine
 10
8.304658003292038
 20
6.749166265700341
 30
0.0
 11
8.240908003292037
 21
6.749166265700341
 31
0.0
  0
LINE
  5
61EF
330
18
100
AcDbEntity
  8
S2
  6
HIDDEN
100
AcDbLine
 10
8.30465800329204
 20
6.737916265700341
 30
0.0
 11
8.304658003292038
 21
6.749166265700341
 31
0.0
  0
ARC
  5
61F0
330
18
100
AcDbEntity
  8
S2
  6
HIDDEN
100
AcDbCircle
 10
8.319658003292039
 20
6.737916265700341
 30
0.0
 40
0.015
100
AcDbArc
 50
180.0
 51
270.0
  0
LINE
  5
61F1
330
18
100
AcDbEntity
  8
S2
  6
HIDDEN
100
AcDbLine
 10
8.515408003292037
 20
6.707916265700342
 30
0.0
 11
8.515408003292035
 21
6.250416265700342
 31
0.0
  0
ARC
  5
61F2
330
18
100
AcDbEntity
  8
S2
  6
HIDDEN
100
AcDbCircle
 10
8.500408003292037
 20
6.250416265700342
 30
0.0
 40
0.015
100
AcDbArc
 50
270.0
 51
359.9999999999997
  0
LINE
  5
61F3
330
18
100
AcDbEntity
  8
S2
  6
HIDDEN
100
AcDbLine
 10
8.420908003292037
 20
6.524166265700341
 30
0.0
 11
8.420908003292037
 21
6.434166265700342
 31
0.0
  0
ARC
  5
61F4
330
18
100
AcDbEntity
  8
S2
  6
HIDDEN
100
AcDbCircle
 10
8.500408003292037
 20
6.707916265700342
 30
0.0
 40
0.015
100
AcDbArc
 50
359.9999999999997
 51
90.0
  0
LINE
  5
61F6
330
18
100
AcDbEntity
  8
D1
  6
CONTINUOUS
100
AcDbLine
 10
8.512783003292032
 20
7.26118550358681
 30
0.0
 11
8.512783003292032
 21
8.018415526835916
 31
0.0
  0
LINE
  5
61F7
330
18
100
AcDbEntity
  8
D1
  6
CONTINUOUS
100
AcDbLine
 10
8.420908003292037
 20
6.564166265700341
 30
0.0
 11
8.420908003292037
 21
8.018415526835916
 31
0.0
  0
LINE
  5
61F8
330
18
100
AcDbEntity
  8
D1
  6
CONTINUOUS
100
AcDbLine
 10
8.692783003292031
 20
7.978415526835917
 30
0.0
 11
8.872783003292031
 21
7.978415526835917
 31
0.0
  0
LINE
  5
61F9
330
18
100
AcDbEntity
  8
D1
  6
CONTINUOUS
100
AcDbLine
 10
8.240908003292037
 20
7.978415526835917
 30
0.0
 11
8.060908003292036
 21
7.978415526835917
 31
0.0
  0
SOLID
  5
61FA
330
18
100
AcDbEntity
  8
D1
  6
CONTINUOUS
100
AcDbTrace
 10
8.692783003292031
 20
8.008415526835916
 30
0.0
 11
8.692783003292031
 21
7.948415526835916
 31
0.0
 12
8.512783003292032
 22
7.978415526835917
 32
0.0
 13
8.512783003292032
 23
7.978415526835917
 33
0.0
  0
SOLID
  5
61FB
330
18
100
AcDbEntity
  8
D1
  6
CONTINUOUS
100
AcDbTrace
 10
8.240908003292037
 20
8.008415526835916
 30
0.0
 11
8.240908003292037
 21
7.948415526835916
 31
0.0
 12
8.420908003292037
 22
7.978415526835917
 32
0.0
 13
8.420908003292037
 23
7.978415526835917
 33
0.0
  0
MTEXT
  5
61FC
330
18
100
AcDbEntity
  8
D1
  6
CONTINUOUS
100
AcDbMText
 10
7.80424133662537
 20
7.900579596715893
 30
0.0
 40
0.09
 41
0.0
 71
     5
 72
     1
  1
0.06"\P(1.5mm)
  7
ARIALBLACK
1001
ACAD
1000
MTEXTBEGIN
1070
    73
1070
     1
1070
    44
1040
1.0
1070
    74
1070
     0
1000
MTEXTEND
  0
LINE
  5
61FE
330
18
100
AcDbEntity
  8
S2
  6
CONTINUOUS
100
AcDbLine
 10
13.93220400766455
 20
6.50916626570035
 30
0.0
 11
13.87220400766455
 21
6.50916626570035
 31
0.0
  0
LINE
  5
61FF
330
18
100
AcDbEntity
  8
S2
  6
CONTINUOUS
100
AcDbLine
 10
13.93220400766455
 20
6.449166265700349
 30
0.0
 11
13.87220400766455
 21
6.449166265700349
 31
0.0
  0
LINE
  5
6201
330
18
100
AcDbEntity
  8
S2
  6
CONTINUOUS
100
AcDbLine
 10
13.87220400766455
 20
6.50916626570035
 30
0.0
 11
13.87220400766455
 21
6.449166265700349
 31
0.0
  0
LINE
  5
6202
330
18
100
AcDbEntity
  8
S2
  6
CONTINUOUS
100
AcDbLine
 10
13.93220400766455
 20
6.50916626570035
 30
0.0
 11
13.93220400766455
 21
6.449166265700349
 31
0.0
  0
CIRCLE
  5
6203
330
18
100
AcDbEntity
  8
S2
  6
CONTINUOUS
100
AcDbCircle
 10
13.90220400766455
 20
6.479166265700349
 30
0.0
 40
0.02
1001
ACAD
1000
ASC_BOUNDS
1002
{
1070
    19
1005
620A
1002
}
  0
INSERT
  5
620A
330
18
100
AcDbEntity
  8
S2
  6
CONTINUOUS
100
AcDbBlockReference
  2
*X8
 10
0.0
 20
0.0
 30
0.0
1001
ACAD
1000
HATCH
1002
{
1070
    19
1000
DOTS
1040
0.05
1040
0.0
1000
ASC_BOUNDS
1070
     1
1070
     1
1070
     1
1005
6203
1000
ASC_SEEDPOINT
1011
13.90120393637899
1021
6.483322365455027
1031
0.0
1000
R14_HATCH_DATA
1000
620A
1011
1.0
1021
0.0
1031
0.0
1011
0.0
1021
1.0
1031
0.0
1011
0.0
1021
0.0
1031
1.0
1040
0.0
1010
0.0
1020
0.0
1030
1.0
1000
DOTS
1070
     0
1070
     1
1071
        1
1071
        7
1070
     1
1070
     1
1071
        2
1040
13.88220400766455
1040
6.479166265700349
1040
1.0
1040
13.92220400766455
1040
6.479166265700349
1040
1.0
1071
        1
1005
6203
1070
     0
1070
     1
1040
0.0
1040
0.05
1070
     0
1070
     1
1040
0.0
1040
2.353318641884428
1040
8.017111620010812
1040
0.0015625
1040
0.003125
1070
     2
1040
0.0
1040
-0.003125
1040
0.0005267185445851
1071
        1
1040
13.90120393637899
1040
6.483322365455027
1040
0.0
1002
}
  0
LINE
  5
6231
330
18
100
AcDbEntity
  8
S2
  6
CONTINUOUS
100
AcDbLine
 10
6.015283003292031
 20
6.599166265700343
 30
0.0
 11
6.015283003292031
 21
7.319166265700345
 31
0.0
  0
ENDSEC
  0
SECTION
  2
OBJECTS
  0
DICTIONARY
  5
C
330
0
100
AcDbDictionary
  3
ACAD_GROUP
350
D
  3
ACAD_LAYOUT
350
5DBF
  3
ACAD_MLINESTYLE
350
E
  3
ACAD_PLOTSETTINGS
350
5DC0
  3
CONTENTDICTIONARY
350
5903
1001
ACAD
1000
TREAT_AS_HARD
1070
     0
  0
DICTIONARY
  5
623F
330
18
100
AcDbDictionary
  3
ACAD_LAYOUTSELFREF
350
6240
  0
DICTIONARY
  5
623D
330
15
100
AcDbDictionary
  3
ACAD_LAYOUTSELFREF
350
623E
  0
DICTIONARY
  5
D
102
{ACAD_REACTORS
330
C
102
}
330
C
100
AcDbDictionary
1001
ACAD
1000
TREAT_AS_HARD
1070
     0
  0
DICTIONARY
  5
5DBF
102
{ACAD_REACTORS
330
C
102
}
330
C
100
AcDbDictionary
1001
ACAD
1000
TREAT_AS_HARD
1070
     0
  0
DICTIONARY
  5
E
102
{ACAD_REACTORS
330
C
102
}
330
C
100
AcDbDictionary
  3
STANDARD
350
1B
1001
ACAD
1000
TREAT_AS_HARD
1070
     0
  0
DICTIONARY
  5
5DC0
102
{ACAD_REACTORS
330
C
102
}
330
C
100
AcDbDictionary
1001
ACAD
1000
TREAT_AS_HARD
1070
     0
  0
DICTIONARY
  5
5903
102
{ACAD_REACTORS
330
C
102
}
330
C
100
AcDbDictionary
1001
CONTENTTABDATA
1070
     7
1000
English Fasteners
1000
C:\Program Files\AutoCAD LT 97\Symbols\eengfast.dwg
1070
     0
1070
     0
1070
     1
1000
Metric Fasteners
1000
C:\Program Files\AutoCAD LT 97\Symbols\emetfast.dwg
1070
     0
1070
     0
1070
     1
1000
Welding
1000
C:\Program Files\AutoCAD LT 97\Symbols\ewelding.dwg
1070
     0
1070
     0
1070
     1
1000
Hyd-Pneu
1000
C:\Program Files\AutoCAD LT 97\Symbols\ehydpneu.dwg
1070
     0
1070
     0
1070
     1
1000
Pipe Fittings
1000
C:\Program Files\AutoCAD LT 97\Symbols\epipefit.dwg
1070
     0
1070
     0
1070
     1
1000
Plant Process
1000
C:\Program Files\AutoCAD LT 97\Symbols\eplntprc.dwg
1070
     0
1070
     0
1070
     1
1000
BLOCKS
1000
C:\BLOCKS
1070
     1
1070
     0
1070
     1
1001
CONTENTCURRENTTAB
1070
     7
1001
ACAD
1000
TREAT_AS_HARD
1070
     0
  0
XRECORD
  5
6240
102
{ACAD_REACTORS
330
623F
102
}
330
623F
100
AcDbXrecord
340
18
  0
XRECORD
  5
623E
102
{ACAD_REACTORS
330
623D
102
}
330
623D
100
AcDbXrecord
340
15
  0
MLINESTYLE
  5
1B
102
{ACAD_REACTORS
330
E
102
}
330
E
100
AcDbMlineStyle
  2
STANDARD
 70
     0
  3

 62
     0
 51
90.0
 52
90.0
 71
     2
 49
0.5
 62
   256
  6
BYLAYER
 49
-0.5
 62
   256
  6
BYLAYER
  0
ENDSEC
  0
EOF
