ISO-10303-21;
HEADER;
FILE_DESCRIPTION (( 'STEP AP203' ),
    '1' );
FILE_NAME ('Web Model 48854_15965.step',
    '2020-10-07T17:33:03',
    ( '' ),
    ( '' ),
    'SwSTEP 2.0',
    'SolidWorks 2018',
    '' );
FILE_SCHEMA (( 'CONFIG_CONTROL_DESIGN' ));
ENDSEC;

DATA;
#1 = VECTOR ( 'NONE', #106, 1000.000000000000000 ) ;
#2 = APPLICATION_CONTEXT ( 'configuration controlled 3d designs of mechanical parts and assemblies' ) ;
#3 = PERSON_AND_ORGANIZATION_ROLE ( 'creator' ) ;
#4 = CC_DESIGN_APPROVAL ( #147, ( #52 ) ) ;
#5 = LINE ( 'NONE', #62, #174 ) ;
#6 = LOCAL_TIME ( 13, 33, 3.000000000000000000, #79 ) ;
#7 = APPROVAL ( #101, 'UNSPECIFIED' ) ;
#8 = DIRECTION ( 'NONE',  ( -1.000000000000000000, 0.0000000000000000000, 0.0000000000000000000 ) ) ;
#9 = MANIFOLD_SOLID_BREP ( 'Boss-Extrude1', #48 ) ;
#10 = APPROVAL_DATE_TIME ( #30, #147 ) ;
#11 = AXIS2_PLACEMENT_3D ( 'NONE', #115, #157, #8 ) ;
#12 =( LENGTH_UNIT ( ) NAMED_UNIT ( * ) SI_UNIT ( .MILLI., .METRE. ) );
#13 = DIRECTION ( 'NONE',  ( 1.000000000000000000, 0.0000000000000000000, 0.0000000000000000000 ) ) ;
#14 = PERSON_AND_ORGANIZATION ( #123, #20 ) ;
#15 = CARTESIAN_POINT ( 'NONE',  ( 7.500000000000000000, 9.184850993605147944E-16, -1.000000000000000000 ) ) ;
#16 = PRODUCT_DEFINITION_SHAPE ( 'NONE', 'NONE',  #52 ) ;
#17 = EDGE_CURVE ( 'NONE', #149, #118, #131, .T. ) ;
#18 = ADVANCED_FACE ( 'NONE', ( #87 ), #129, .T. ) ;
#19 = ORIENTED_EDGE ( 'NONE', *, *, #17, .T. ) ;
#20 = ORGANIZATION ( 'UNSPECIFIED', 'UNSPECIFIED', '' ) ;
#21 = AXIS2_PLACEMENT_3D ( 'NONE', #49, #145, #64 ) ;
#22 = PERSON_AND_ORGANIZATION ( #123, #20 ) ;
#23 = DIRECTION ( 'NONE',  ( 1.000000000000000000, 0.0000000000000000000, -0.0000000000000000000 ) ) ;
#24 = CARTESIAN_POINT ( 'NONE',  ( 0.0000000000000000000, 0.0000000000000000000, -1.000000000000000000 ) ) ;
#25 = LOCAL_TIME ( 13, 33, 3.000000000000000000, #98 ) ;
#26 = APPROVAL_PERSON_ORGANIZATION ( #108, #147, #85 ) ;
#27 = MECHANICAL_CONTEXT ( 'NONE', #56, 'mechanical' ) ;
#28 = PERSON_AND_ORGANIZATION_ROLE ( 'classification_officer' ) ;
#29 = APPLICATION_PROTOCOL_DEFINITION ( 'international standard', 'config_control_design', 1994, #2 ) ;
#30 = DATE_AND_TIME ( #109, #140 ) ;
#31 = CC_DESIGN_DATE_AND_TIME_ASSIGNMENT ( #39, #42, ( #51 ) ) ;
#32 = CIRCLE ( 'NONE', #173, 7.500000000000000000 ) ;
#33 = CC_DESIGN_PERSON_AND_ORGANIZATION_ASSIGNMENT ( #117, #3, ( #156 ) ) ;
#34 = CYLINDRICAL_SURFACE ( 'NONE', #81, 7.500000000000000000 ) ;
#35 =( NAMED_UNIT ( * ) SI_UNIT ( $, .STERADIAN. ) SOLID_ANGLE_UNIT ( ) );
#36 = EDGE_LOOP ( 'NONE', ( #103, #41, #19, #120 ) ) ;
#37 = DIRECTION ( 'NONE',  ( 0.0000000000000000000, 0.0000000000000000000, 1.000000000000000000 ) ) ;
#38 = CARTESIAN_POINT ( 'NONE',  ( -7.500000000000000000, 0.0000000000000000000, 1.000000000000000000 ) ) ;
#39 = DATE_AND_TIME ( #148, #6 ) ;
#40 = APPROVAL ( #110, 'UNSPECIFIED' ) ;
#41 = ORIENTED_EDGE ( 'NONE', *, *, #86, .T. ) ;
#42 = DATE_TIME_ROLE ( 'classification_date' ) ;
#43 = SHAPE_DEFINITION_REPRESENTATION ( #16, #104 ) ;
#44 = AXIS2_PLACEMENT_3D ( 'NONE', #94, #160, #153 ) ;
#45 = ORIENTED_EDGE ( 'NONE', *, *, #66, .T. ) ;
#46 = CC_DESIGN_APPROVAL ( #40, ( #51 ) ) ;
#47 = DIRECTION ( 'NONE',  ( 0.0000000000000000000, 0.0000000000000000000, 1.000000000000000000 ) ) ;
#48 = CLOSED_SHELL ( 'NONE', ( #139, #55, #18, #71 ) ) ;
#49 = CARTESIAN_POINT ( 'NONE',  ( 0.0000000000000000000, 0.0000000000000000000, -1.000000000000000000 ) ) ;
#50 = APPROVAL_DATE_TIME ( #88, #7 ) ;
#51 = SECURITY_CLASSIFICATION ( '', '', #68 ) ;
#52 = PRODUCT_DEFINITION ( 'UNKNOWN', '', #156, #89 ) ;
#53 = EDGE_LOOP ( 'NONE', ( #45, #170 ) ) ;
#54 = APPROVAL_STATUS ( 'not_yet_approved' ) ;
#55 = ADVANCED_FACE ( 'NONE', ( #144 ), #34, .T. ) ;
#56 = APPLICATION_CONTEXT ( 'configuration controlled 3d designs of mechanical parts and assemblies' ) ;
#57 = PERSON_AND_ORGANIZATION_ROLE ( 'design_supplier' ) ;
#58 = ORIENTED_EDGE ( 'NONE', *, *, #165, .T. ) ;
#59 = AXIS2_PLACEMENT_3D ( 'NONE', #75, #158, #13 ) ;
#60 = DIRECTION ( 'NONE',  ( 1.000000000000000000, 0.0000000000000000000, -0.0000000000000000000 ) ) ;
#61 = CC_DESIGN_APPROVAL ( #7, ( #156 ) ) ;
#62 = CARTESIAN_POINT ( 'NONE',  ( -7.500000000000000000, 0.0000000000000000000, 1.000000000000000000 ) ) ;
#63 = DIRECTION ( 'NONE',  ( 1.000000000000000000, 0.0000000000000000000, 0.0000000000000000000 ) ) ;
#64 = DIRECTION ( 'NONE',  ( 1.000000000000000000, 0.0000000000000000000, 0.0000000000000000000 ) ) ;
#65 = EDGE_LOOP ( 'NONE', ( #80, #90, #105, #58 ) ) ;
#66 = EDGE_CURVE ( 'NONE', #152, #137, #172, .T. ) ;
#67 = PERSON_AND_ORGANIZATION ( #123, #20 ) ;
#68 = SECURITY_CLASSIFICATION_LEVEL ( 'unclassified' ) ;
#69 = CIRCLE ( 'NONE', #126, 7.500000000000000000 ) ;
#70 = UNCERTAINTY_MEASURE_WITH_UNIT (LENGTH_MEASURE( 1.000000000000000082E-05 ), #12, 'distance_accuracy_value', 'NONE');
#71 = ADVANCED_FACE ( 'NONE', ( #151 ), #133, .F. ) ;
#72 = FACE_OUTER_BOUND ( 'NONE', #36, .T. ) ;
#73 = PERSON_AND_ORGANIZATION ( #123, #20 ) ;
#74 = COORDINATED_UNIVERSAL_TIME_OFFSET ( 5, 0, .BEHIND. ) ;
#75 = CARTESIAN_POINT ( 'NONE',  ( 0.0000000000000000000, 0.0000000000000000000, 1.000000000000000000 ) ) ;
#76 = CARTESIAN_POINT ( 'NONE',  ( 0.0000000000000000000, 0.0000000000000000000, 1.000000000000000000 ) ) ;
#77 = CARTESIAN_POINT ( 'NONE',  ( 7.500000000000000000, 9.184850993605147944E-16, 1.000000000000000000 ) ) ;
#78 = CARTESIAN_POINT ( 'NONE',  ( 0.0000000000000000000, 0.0000000000000000000, 1.000000000000000000 ) ) ;
#79 = COORDINATED_UNIVERSAL_TIME_OFFSET ( 5, 0, .BEHIND. ) ;
#80 = ORIENTED_EDGE ( 'NONE', *, *, #86, .F. ) ;
#81 = AXIS2_PLACEMENT_3D ( 'NONE', #78, #142, #146 ) ;
#82 = PERSON_AND_ORGANIZATION_ROLE ( 'design_owner' ) ;
#83 = AXIS2_PLACEMENT_3D ( 'NONE', #91, #116, #60 ) ;
#84 = PERSON_AND_ORGANIZATION ( #123, #20 ) ;
#85 = APPROVAL_ROLE ( '' ) ;
#86 = EDGE_CURVE ( 'NONE', #137, #149, #159, .T. ) ;
#87 = FACE_OUTER_BOUND ( 'NONE', #53, .T. ) ;
#88 = DATE_AND_TIME ( #122, #113 ) ;
#89 = DESIGN_CONTEXT ( 'detailed design', #2, 'design' ) ;
#90 = ORIENTED_EDGE ( 'NONE', *, *, #66, .F. ) ;
#91 = CARTESIAN_POINT ( 'NONE',  ( 0.0000000000000000000, 0.0000000000000000000, -1.000000000000000000 ) ) ;
#92 = DIRECTION ( 'NONE',  ( -0.0000000000000000000, -0.0000000000000000000, -1.000000000000000000 ) ) ;
#93 = COORDINATED_UNIVERSAL_TIME_OFFSET ( 5, 0, .BEHIND. ) ;
#94 = CARTESIAN_POINT ( 'NONE',  ( 0.0000000000000000000, 0.0000000000000000000, 0.0000000000000000000 ) ) ;
#95 = CC_DESIGN_SECURITY_CLASSIFICATION ( #51, ( #156 ) ) ;
#96 = CALENDAR_DATE ( 2020, 7, 10 ) ;
#97 = EDGE_CURVE ( 'NONE', #137, #152, #69, .T. ) ;
#98 = COORDINATED_UNIVERSAL_TIME_OFFSET ( 5, 0, .BEHIND. ) ;
#99 = PRODUCT ( 'Web Model 48854_15965', 'Web Model 48854_15965', '', ( #27 ) ) ;
#100 = APPROVAL_ROLE ( '' ) ;
#101 = APPROVAL_STATUS ( 'not_yet_approved' ) ;
#102 = CC_DESIGN_PERSON_AND_ORGANIZATION_ASSIGNMENT ( #166, #175, ( #52 ) ) ;
#103 = ORIENTED_EDGE ( 'NONE', *, *, #97, .F. ) ;
#104 = ADVANCED_BREP_SHAPE_REPRESENTATION ( 'Web Model 48854_15965', ( #9, #44 ), #171 ) ;
#105 = ORIENTED_EDGE ( 'NONE', *, *, #163, .T. ) ;
#106 = DIRECTION ( 'NONE',  ( -0.0000000000000000000, -0.0000000000000000000, -1.000000000000000000 ) ) ;
#107 = DIRECTION ( 'NONE',  ( 0.0000000000000000000, 0.0000000000000000000, 1.000000000000000000 ) ) ;
#108 = PERSON_AND_ORGANIZATION ( #123, #20 ) ;
#109 = CALENDAR_DATE ( 2020, 7, 10 ) ;
#110 = APPROVAL_STATUS ( 'not_yet_approved' ) ;
#111 = LOCAL_TIME ( 13, 33, 3.000000000000000000, #154 ) ;
#112 = ORIENTED_EDGE ( 'NONE', *, *, #165, .F. ) ;
#113 = LOCAL_TIME ( 13, 33, 3.000000000000000000, #93 ) ;
#114 =( NAMED_UNIT ( * ) PLANE_ANGLE_UNIT ( ) SI_UNIT ( $, .RADIAN. ) );
#115 = CARTESIAN_POINT ( 'NONE',  ( 0.0000000000000000000, 0.0000000000000000000, 1.000000000000000000 ) ) ;
#116 = DIRECTION ( 'NONE',  ( 0.0000000000000000000, 0.0000000000000000000, 1.000000000000000000 ) ) ;
#117 = PERSON_AND_ORGANIZATION ( #123, #20 ) ;
#118 = VERTEX_POINT ( 'NONE', #130 ) ;
#119 = APPROVAL_DATE_TIME ( #138, #40 ) ;
#120 = ORIENTED_EDGE ( 'NONE', *, *, #163, .F. ) ;
#121 = APPROVAL_ROLE ( '' ) ;
#122 = CALENDAR_DATE ( 2020, 7, 10 ) ;
#123 = PERSON ( 'UNSPECIFIED', 'UNSPECIFIED', 'UNSPECIFIED', ('UNSPECIFIED'), ('UNSPECIFIED'), ('UNSPECIFIED') ) ;
#124 = DATE_TIME_ROLE ( 'creation_date' ) ;
#125 = PRODUCT_RELATED_PRODUCT_CATEGORY ( 'detail', '', ( #99 ) ) ;
#126 = AXIS2_PLACEMENT_3D ( 'NONE', #76, #107, #63 ) ;
#127 = APPROVAL_PERSON_ORGANIZATION ( #67, #7, #100 ) ;
#128 = CC_DESIGN_PERSON_AND_ORGANIZATION_ASSIGNMENT ( #73, #82, ( #99 ) ) ;
#129 = PLANE ( 'NONE',  #150 ) ;
#130 = CARTESIAN_POINT ( 'NONE',  ( -7.500000000000000000, 0.0000000000000000000, -1.000000000000000000 ) ) ;
#131 = CIRCLE ( 'NONE', #21, 7.500000000000000000 ) ;
#132 = DIRECTION ( 'NONE',  ( 1.000000000000000000, 0.0000000000000000000, 0.0000000000000000000 ) ) ;
#133 = PLANE ( 'NONE',  #83 ) ;
#134 = CYLINDRICAL_SURFACE ( 'NONE', #11, 7.500000000000000000 ) ;
#135 = CC_DESIGN_DATE_AND_TIME_ASSIGNMENT ( #167, #124, ( #52 ) ) ;
#136 = APPLICATION_PROTOCOL_DEFINITION ( 'international standard', 'config_control_design', 1994, #56 ) ;
#137 = VERTEX_POINT ( 'NONE', #77 ) ;
#138 = DATE_AND_TIME ( #96, #111 ) ;
#139 = ADVANCED_FACE ( 'NONE', ( #72 ), #134, .T. ) ;
#140 = LOCAL_TIME ( 13, 33, 3.000000000000000000, #74 ) ;
#141 = CC_DESIGN_PERSON_AND_ORGANIZATION_ASSIGNMENT ( #84, #57, ( #156 ) ) ;
#142 = DIRECTION ( 'NONE',  ( -0.0000000000000000000, -0.0000000000000000000, -1.000000000000000000 ) ) ;
#143 = CARTESIAN_POINT ( 'NONE',  ( 0.0000000000000000000, 0.0000000000000000000, 1.000000000000000000 ) ) ;
#144 = FACE_OUTER_BOUND ( 'NONE', #65, .T. ) ;
#145 = DIRECTION ( 'NONE',  ( 0.0000000000000000000, 0.0000000000000000000, 1.000000000000000000 ) ) ;
#146 = DIRECTION ( 'NONE',  ( -1.000000000000000000, 0.0000000000000000000, 0.0000000000000000000 ) ) ;
#147 = APPROVAL ( #54, 'UNSPECIFIED' ) ;
#148 = CALENDAR_DATE ( 2020, 7, 10 ) ;
#149 = VERTEX_POINT ( 'NONE', #15 ) ;
#150 = AXIS2_PLACEMENT_3D ( 'NONE', #143, #47, #23 ) ;
#151 = FACE_OUTER_BOUND ( 'NONE', #155, .T. ) ;
#152 = VERTEX_POINT ( 'NONE', #38 ) ;
#153 = DIRECTION ( 'NONE',  ( 1.000000000000000000, 0.0000000000000000000, 0.0000000000000000000 ) ) ;
#154 = COORDINATED_UNIVERSAL_TIME_OFFSET ( 5, 0, .BEHIND. ) ;
#155 = EDGE_LOOP ( 'NONE', ( #112, #161 ) ) ;
#156 = PRODUCT_DEFINITION_FORMATION_WITH_SPECIFIED_SOURCE ( 'ANY', '', #99, .NOT_KNOWN. ) ;
#157 = DIRECTION ( 'NONE',  ( -0.0000000000000000000, -0.0000000000000000000, -1.000000000000000000 ) ) ;
#158 = DIRECTION ( 'NONE',  ( 0.0000000000000000000, 0.0000000000000000000, 1.000000000000000000 ) ) ;
#159 = LINE ( 'NONE', #169, #1 ) ;
#160 = DIRECTION ( 'NONE',  ( 0.0000000000000000000, 0.0000000000000000000, 1.000000000000000000 ) ) ;
#161 = ORIENTED_EDGE ( 'NONE', *, *, #17, .F. ) ;
#162 = CALENDAR_DATE ( 2020, 7, 10 ) ;
#163 = EDGE_CURVE ( 'NONE', #152, #118, #5, .T. ) ;
#164 = APPROVAL_PERSON_ORGANIZATION ( #22, #40, #121 ) ;
#165 = EDGE_CURVE ( 'NONE', #118, #149, #32, .T. ) ;
#166 = PERSON_AND_ORGANIZATION ( #123, #20 ) ;
#167 = DATE_AND_TIME ( #162, #25 ) ;
#168 = CC_DESIGN_PERSON_AND_ORGANIZATION_ASSIGNMENT ( #14, #28, ( #51 ) ) ;
#169 = CARTESIAN_POINT ( 'NONE',  ( 7.500000000000000000, 9.184850993605147944E-16, 1.000000000000000000 ) ) ;
#170 = ORIENTED_EDGE ( 'NONE', *, *, #97, .T. ) ;
#171 =( GEOMETRIC_REPRESENTATION_CONTEXT ( 3 ) GLOBAL_UNCERTAINTY_ASSIGNED_CONTEXT ( ( #70 ) ) GLOBAL_UNIT_ASSIGNED_CONTEXT ( ( #12, #114, #35 ) ) REPRESENTATION_CONTEXT ( 'NONE', 'WORKASPACE' ) );
#172 = CIRCLE ( 'NONE', #59, 7.500000000000000000 ) ;
#173 = AXIS2_PLACEMENT_3D ( 'NONE', #24, #37, #132 ) ;
#174 = VECTOR ( 'NONE', #92, 1000.000000000000000 ) ;
#175 = PERSON_AND_ORGANIZATION_ROLE ( 'creator' ) ;
ENDSEC;
END-ISO-10303-21;
